rock
 
|tablatures   |lyrics   |discussion forums   |more tabs @ XGuitar.com

Offspring tabs

Mota guitar tab

MOTA, The Offspring - Album: Ixnay on the Hombre
Tata tatata ta ta tatatata ta ta tatatata... Playing this song feels like
you`re in mota cloud. This is even faster to play than The meaning of life.

# INTRO # 
E-----------------------------------------------------------------|
B-----------------------------------------------------------------|
G-----------------------------------------------------------------|
D---5-5--5-5-5--5--5--5-5-5-5--5--5--5-5-5-5----------------------|
A---5-5--5-5-5--5--5--5-5-5-5--5--5--5-5-5-5----------------------|
E---3-3--3-3-3--3--3--3-3-3-3--3--3--3-3-3-3----------------------|
    \_____________palm-muted_______________/

# INTRO2 #
E---------------------------------------------------------------|
B---------------------------------------------------------------|
G---12-12--12-12-12--12--12--12-12-12-12--12--12--12-12-12-12---|
D---12-12--12-12-12--12--12--12-12-12-12--12--12--12-12-12-12---|
A---10-10--10-10-10--10--10--10-10-10-10--10--10--10-10-10-10---|
E---------------------------------------------------------------|

# INTRO3 # ->play X2           *=play 8X
E-----------------------------------------------------------------|
B-----*-----------------------------------------------------------|
G---12---14--15-14-12-10--8-8--8-8-8--8-10-10--14--15-14-12-10----|
D---12---14--15-14-12-10--8-8--8-8-8--8-10-10--14--15-14-12-10----|
A---10---12--13-12-10--8--6-6--6-6-6--6--8--8--12--13-12-10--8----|
E-----------------------------------------------------------------|

# VERSE # ->play X2     *=play 5X     (sometimes without muting)
E----------------------|
B-----*----*---*----*--|
G---12---12---8---10---|
D---12---12---8---10---|
A---10---10---6----8---|
E----------------------|
    \__palm-muted__/

->Then play INTRO3.

# CHORUS #  ->play X4      *=play 6X
E-------------------|
B--------*----------|
G----*--5----*---*--|   (brackets not last time)
D---3---5--(5---5)--|
A---3---3--(5---5)--|
E---1------(3---3)--|

->Then play INTRO2, INTRO3, VERSE, INTRO3 and CHORUS X3.

# END-CHORUS2 #  *=play 6X
E-------------------|
B--------*-------*--|
G----*--5----*-10---|
D---3---5---8--10---|
A---3---3---8---8---|
E---1-------6-------|

->Then play INTRO2, INTRO3, CHORUS X5 (3rd time with palm-muting) and INTRO2.
Tata tatata ta ta tatatata ta ta tatatata!!! There you have it!
TABBED BY CHRISTIAN PER'O, peroffspring@hotmail.com
  development and support by
dmitry ivanov