rock
 
|tablatures   |lyrics   |discussion forums   |more tabs @ XGuitar.com

Offspring tabs

Mota bass tab

Intro (play twice)
----------------------------------------
----------------------------------------
----------------------------------------
-3-3--3-3-3--3-3--3-3-3-3--3-3--3-3-3-3-

Pre-verse (play twice)
--------------------------------------------------------------
--------------------------------------------------------------
-------------------0-0-1-0------------------------0-0-1-0-----
-3-3--3-3-3--3-3-3---------3-1--0-0--0-0-0--0-0-0---------3-1-

Verse (play verse twice then play pre-verse twice again)
-------------------------------------------------------
-------------------------------------------------------
--------------------------0----------------------------
-3-3--3-3-3--3-3--3-3-3-3---0-0--0-0-0--0-0--0-0-0-0-0-

Chorus
-----------------------------------------------------------
-----------------------------------------------------------
-----------------3-3-3-3-3-3-3-3---------------------------
-1-1-1-1-1-1-1-1-----------------3-3--3-3-3--3-3-3-3-3-3-3-

Each time you play the chorus riff through for the last time it
ties back to the intro. This is about all you need. In the last
chorus there is a rhythm change, but it is the same notes.
  development and support by
dmitry ivanov