rock
 
|tablatures   |lyrics   |discussion forums   |more tabs @ XGuitar.com

Offspring tabs

Million Miles Away guitar tab

Website: The Offspring.com (http://www.theoffspring.com)
Tabbed By: per (per@coolast.com)
Tabbed For: Guitar
Song Title: Million Miles Away
Album: Conspiracy Of One
Tab:
----------------------------------------------------------
Note:
h = hammer on
: = let ring
/ = slide
x = harmonic or mute. Both works.
b = bend down.
^ = bend up then release back.

song structure:
intro  2x
bridge 1x
riff1  2x
riff1  4x(with pm)
riff2  2x
riff3  1x
riff1  2x
bridge 1x (pm)
riff1  2x
riff1  4x (pm)
riff2  2x
riff3  1x
riff1  2x
bridge 1x
riff1  2x (think the solo is played behind)
solo   1x
riff2  2x
riff3  1x
riff1  8x (both the intro and solo played behind(at different times))
end on last chord(and let ring).

Intro:
e|---------------------------------------------
B|---------------------------------------------
G|---------------------------------------------
D|---------------------------------------------
A|-----------------10-10-10-12-12-12-10h12-----
E|-0-0-7-7-7-9-9-9-----------------------------

Bridge:(intro behind)
                         *  *  (* = 8x)
e|---------------------------------------------
B|---------------------------------------------
G|-9-9:--9-11:---11-13--14-12------------------
D|-9-9:--9-11:---11-13--14-12------------------
A|-7-7:--7--9:----9-11--12-10------------------
E|---------------------------------------------

riff1:
   * *   *   *  (* = 8x)
e|---------------------------------------------
B|---------------------------------------------
G|-9-9--11--14---------------------------------
D|-9-9--11--14---------------------------------
A|-7-7---9--12---------------------------------
E|---------------------------------------------

riff2:
   *  *  *  *  * * * (* = 3x)
e|---------------------------------------------
B|---------------------------------------------
G|-9-11-14-12--9-9-9---------------------------
D|-9-11-14-12--x-x-x---------------------------
A|-7--9-12-10--7-7-7---------------------------
E|---------------------------------------------

riff3:
   * (* = play alot of times palm muted)
e|---------------------------------------------
B|---------------------------------------------
G|-9---9-9-9-9-11-11-11------------------------
D|-9---9-9-9-9-11-11-11------------------------
A|-7---7-7-7-7--9--9--9------------------------
E|---------------------------------------------

solo:
e|---------------------------------------------
B|-9^-----------------------9^-----------------
G|----11-9--9-9-13/11-9-11-----9-9-13/11-9-11--
D|---------------------------------------------
A|---------------------------------------------
E|---------------------------------------------

solo part 2:
e|---------------------------------------------
B|-9^-----------------12b-14b------------------
G|----9-9-13/11-9-11----------11b-9b-----------
D|---------------------------------------------
A|---------------------------------------------
E|---------------------------------------------
----------------------------------------------------------
  development and support by
dmitry ivanov