rock
 
|tablatures   |lyrics   |discussion forums   |more tabs @ XGuitar.com

Offspring tabs

Me And My Old Lady guitar tab

Album: Ixnay on the Hombre
Year: 1997
Track: 4
Title: Me and my old lady

# INTRO # ->play X2               /=slide
E---------------------------------------------------|
B---------------------------------------------------|
G---9-9-7-9-9-10-13--10-9-9-7-9-9--11-11-11-11-11/--|
D---9-9-7-9-9-10-13--10-9-9-7-9-9---9--9--9--9--9/--|
A---7-7-5-7-7--8-11---8-7-7-5-7-7-------------------|
E---------------------------------------------------|
                                       
# VERSE # ->play X6     (brackets X2)
E-------------------------------------------------->
B-------------------------------------------------->
G--9-9-7-9-9-10-13--10-9-9-7-9-9--11-11-11-11-11/-->
D--9-9-7-9-9-10-13--10-9-9-7-9-9---9--9--9--9--9/-->
A--7-7-5-7-7--8-11---8-7-7-5-7-7------------------->
E-------------------------------------------------->
    \_____________palm-muted_________________/


# solo #         (played over the VERSE chords)      h=hammer-on  p=pull-off
E-------------------------------------------------------------------->
B-------------------------------------------------------------------->
G-------------------------------------------------------------------->
D---6---6h7-6h7/9---7h9-7h9-6----------------------------------5-7--->
A-------------------------------7h8p7--7---5h7-5h7/8\7---5-7-8------->
E-------------------------------------------------------------------->

E-----------------------------------------|
B-----------------------------------------|
G------------------------------------11/--|
D---6-7/9/12--10-7---7/9/12--10\7/9---9/--|
A-----------------------------------------|
E-----------------------------------------|

# CHORUS # ->play X3
E----------------------------------------------------------------------------|
B----------------------------------------------------------------------------|
G---7-9-9-9-7-7-7-9---5-7-7-7-5-5-5-7-------------------7-9-9-9-7-7-7-9------|
D---7-9-9-9-7-7-7-9---5-7-7-7-5-5-5-7---5-7-7-7-5-5-5---7-9-9-9-7-7-7-9------|
A---5-7-7-7-5-5-5-7---3-5-5-5-3-3-3-5---5-7-7-7-5-5-5---5-7-7-7-5-5-5-7------|
E---------------------------------------3-5-5-5-3-3-3------------------------|

# END-CHORUS #
E---------------|
B---------------|
G---9---7-------|
D---9---7---7---|
A---7---5---7---|
E-----------5---|

Play INTRO X6, VERSE, CHORUS, END-CHORUS, INTRO X6 and VERSE X2.

# outro #
E-------------------------|
B-------------------------|
G---8---8-8--7---7-7------|
D---8---8-8--7---7-7--8---|
A---6---6-6--5---5-5--8---|
E---------------------6---|
  development and support by
dmitry ivanov