rock
 
|tablatures   |lyrics   |discussion forums   |more tabs @ XGuitar.com

Offspring tabs

Me And My Old Lady bass tab

THE OFFSPRING
          Me and My Old Lady
          Ixnay on the Hombre (Released 1997)

          Standard Tuning (EADG)


          ** Intro **
          G|--------------------------------|
          D|---------------6-------------6--|
          A|-----7-7-5-7-8---8-7-7-5-7-8----|
          E|--0-----------------------------|


          *** MAIN RIFF ***

          Riff 1
          G|--------------------------------|
          D|---------------6----------------|
          A|-----7-7-5-7-8---8-7-7-5-7------|
          E|--------------------------------|

          Riff 2
          G|---------------6----------------|
          D|-----7-7-5-7-8---8-7-7-5-7------|
          A|--------------------------------|
          E|--------------------------------|


          ** Chorus **
          G|------------------------------------------------|
          D|---------------7-7-5-7---------------9-9-7-9----|
          A|----7-7-5-7---------------7-7-5-7---------------|
          E|------------------------------------------------|


          There is a Bridge but I haven't worked it out yet.
          To work out which order they go you would have to listen to the song.

          You need to listen to it anyway if you want to find out how it goes as
          I can't put rhythm in Tabs without making them somewhat Impossible to read.

          Robert Barber

          Email :  nerd6686@hotmail.com
          ICQ No:  84287337



========================================================================

Bass tab for Me & My Old Lady by The Offspring


Just done the intro: work the rest out yerselves
							      x2
G|-------------------------------------------------------------|
D|-------------------------------------------------------------|
A|------------------------10^(11)^10----------------------11\0-|
E|-0/12-12-10-10-12-12-12------------12-12-10-10-12-12-12------|

G|-------------------------------------------------------------|
D|-------------------------------------------------------------|
A|------------------------10^(11)^10---------------------------|
E|-0/12-12-10-10-12-12-12------------12-12-10-10-12-12-12--r---|

G|-------------------------------------------------------------|
D|-------------------------------------------------------------|
A|------------------------10^(11)^10---------------------------|
E|-0/12-12-10-10-12-12-12------------12-12-10-10-12-12-12-12\0-|

The verse is pretty much the same, but this might not be right anyway.


Notation:	/	Slide (pick second note)
		\	Slide (don't pick second note)
		^	Bend string (number in brackets is produced tone)
  development and support by
dmitry ivanov