rock
 
|tablatures   |lyrics   |discussion forums   |more tabs @ XGuitar.com

Offspring tabs

Long Way Home bass tab

Artist: The Offspring
Song: Long Way Home
Album: Splinter
Bassist: Greg K.
Tuning: Standard

Intro
G|----------|----|
D|----------|----|
A|-3~-5~-7\\-|----|
E|----------|-7\\-|

Verse
G|----------------------|
D|----------------------|
A|-77-5-77-5------33-55-|2x
E|-----------5555-------|

G|--------------------------------------|
D|-----------55555555-------------------|
A|-77-5-77-5----------33333333-55555555-|
E|--------------------------------------|

-verse

Chorus     3x
G|--------------------|-------------------|
D|------5555----------|-------------------|
A|-7777-----5555------|-333333333333-5555-|
E|---------------5555-|-------------------|

Post Chorus
G|--------------|
D|--------------|
A|-77-5-77-5-7\\-|
E|--------------|

-verse 2x
-chorus

End of Chorus (subsitute this for the second half of the last chorus played)
G|--------------------------------------|
D|--------------------------------------|
A|-3333333333333333-5555555555555555-7\\-|
E|--------------------------------------|

Bridge                 repeat until breakdown-
G|------------------|---------------------|   |
D|------------------|---------------------| <-
A|------------------|-77-5-77-5-77-5-77-5-|
E|-0000000000000000-|---------------------|

G|----------------------------------|
D|----------------------------------|
A|-33333333-55555555-2-2--2-2--2-2--|
E|----------------------------------|

-Chorus
-Chorus (with substution)
  development and support by
dmitry ivanov