rock
 
|tablatures   |lyrics   |discussion forums   |more tabs @ XGuitar.com

Offspring tabs

Living In Chaos guitar tab

Website: The Offspring.com (http://www.theoffspring.com)
Tabbed By: per (per@coolast.com)
Tabbed For: Guitar
Song Title: Living In Chaos
Album: Conspiracy Of One
Tab:
----------------------------------------------------------
structure:
intro         2x
intro + riff1 2x
bridge        1x
solo	      6x
riff1	      2x
riff1 + intro 2x
solo	      4x
riff1         2x
intro + riff1 2x
interlude     5x
intro + riff1 3x
intro         1x
solo          4x
intro         1x
interlude     5x
intro + riff2 4x
end on the last chord of riff2, strum it like 5x and let ring


Intro:
e|--------------------------------------------------------------
B|--------------------------------------------------------------
G|--------------------------------------------------------------
D|-------7b-7b-----------5b-5b----------7b-7b--5-----5---5-7----
A|-5h7r5---------5h7r5h7---------5h7r5-----------5h7---7-----5--
E|--------------------------------------------------------------

riff1:
e|--------------------------------------------------------------
B|--------------------------------------------------------------
G|-9-9-9-9-9--7-7-7-7-7--9-9-9-9-9--7-7-7-9-7-9-7---------------
D|-9-9-9-9-9--7-7-7-7-7--9-9-9-9-9--7-7-7-9-7-9-7---------------
A|-7-7-7-7-7--5-5-5-5-5--7-7-7-7-7--5-5-5-7-5-7-5---------------
E|--------------------------------------------------------------

Bridge:
e|--------------------------------------------------------------
B|--------------------------------------------------------------
G|-7-7-7-7-7--7-7-7-7-7--9-9-9-7-7-9:---------------------------
D|-7-7-7-7-7--7-7-7-7-7--9-9-9-7-7-9:---------------------------
A|-5-5-5-5-5--5-5-5-5-5--7-7-7-5-5-7:---------------------------
E|--------------------------------------------------------------

solo thingy:

e|-7-9------------0---------------------------------------------
B|-----10-9-7-1-0-----------------------------------------------
G|--------------------------------------------------------------
D|--------------------------------------------------------------
A|--------------------------------------------------------------
E|--------------------------------------------------------------

Interlude:(repeat)
e|--------------------------------------------------------------
B|--------------------------------------------------------------
G|-7:--9:-------------------------------------------------------
D|-7:--9:-------------------------------------------------------
A|-5:--7:-------------------------------------------------------
E|--------------------------------------------------------------

riff2:
e|--------------------------------------------------------------
B|--------------------------------------------------------------
G|-9-9-9-9-9--7-7-7-7-7--9-9-9-9-9--7:-9:-----------------------
D|-9-9-9-9-9--7-7-7-7-7--9-9-9-9-9--7:-9:-----------------------
A|-7-7-7-7-7--5-5-5-5-5--7-7-7-7-7--5:-7:-----------------------
E|--------------------------------------------------------------
----------------------------------------------------------
  development and support by
dmitry ivanov