rock
 
|tablatures   |lyrics   |discussion forums   |more tabs @ XGuitar.com

Offspring tabs

Lightning Rod bass tab

Artist: The Offspring
Song: Lightning Rod
Album: Splinter
Bassist: Greg K.
Tuning: Standard

Intro  *This might not actually be played. ears playing tricks on me
G|------------------|
D|------------------|
A|------------------|
E|-1111111111111111-|

Verse
G|-------------------------------------|
D|-------------------------------------|
A|-88888888----------44444444----------|
E|----------66666666----------11111111-|

Chorus "Locked Up Forever Inside"
G|---------------------------------|
D|---------------------------------|2x
A|-------------66-4-66-4-66-4-66-4-|
E|-1-1-3-4-3-1---------------------|

G|----------------------------|-------------|
D|----------------------------|-------------|
A|-------------4-3-1-6666-4-6-|-4~-6~-4~-6~-|
E|-1-1-3-4-3-1----------------|-------------|

-verse
-chorus (play the 3rd part twice)
-verse

Bridge
G|-------------------------------------|
D|-------------------------------------|
A|----------11111111-44444444----------|
E|-11111111-------------------11111111-|

-chorus

Outro
G|----------------------------------|
D|----------------------------------|
A|-88888888----------44444444-------|
E|----------66666666----------1-1-1-|
  development and support by
dmitry ivanov