rock
 
|tablatures   |lyrics   |discussion forums   |more tabs @ XGuitar.com

Offspring tabs

Leave It Behind guitar tab

Album: Ixnay on the Hombre
Year: 1997
Track: 6
Title: Leave it behind


# INTRO #   X 2         h=hammer-on
E-------0---2--2h3--2--0-----0--2--2h3--2--0---|
B----------------------------------------------|
G----------------------------------------------|
D----------------------------------------------|
A----------------------------------------------|
E---0----------------------0-------------------|

# INTRO2 #     *=play many times again
E-----------|
B--------*--|
G-------9---|
D---2---9---|  (during INTRO)
A---2---7---|
E---0-------|

# VERSE #
E---------------------------------------------------------------------------|
B---------------------------------------------------------------------------|
G---9-9--9-9-9--7-7--7-7--9-9--9-9-9--7-7-7----------9-9--9-9-9--7-7--7-7---|
D---9-9--9-9-9--7-7--7-7--9-9--9-9-9--7-7-7--9-9-9---9-9--9-9-9--7-7--7-7---|
A---7-7--7-7-7--5-5--5-5--7-7--7-7-7--5-5-5--9-9-9---7-7--7-7-7--5-5--5-5---|
E--------------------------------------------7-7-7--------------------------|
   \_____________________________palm-muted______________________________/

# CHORUS #   X2
E--------------------|
B----------------*---|
G---5--------7--9----|      Then play INTRO or INTRO2, VERSE and CHORUS
D---5--3--5--7--9----|
A---3--3--5--5--7----|
E------1--3----------|

# CHORUS2 #      *=play 5X    (I don`t know where itīll END...)
E----------------------------------------------|
B--------*---*---*-------*---*-----------------|
G----*--7---9---5----*--7---9---5-5-5--7-7-7---|
D---5---7---9---5---5---7---9---5-5-5--7-7-7---|
A---5---5---7---3---5---5---7---3-3-3--5-5-5---|
E---3---------------3--------------------------|

Play INTRO or INTRO2, VERSE, CHORUS, CHORUS2, INTRO or INTRO2, CHORUS2 and
finally INTRO or INTRO2.
TABBED BY CHRISTIAN PER'O, peroffspring@hotmail.com
  development and support by
dmitry ivanov