rock
 
|tablatures   |lyrics   |discussion forums   |more tabs @ XGuitar.com

Offspring tabs

L.A.P.D. bass tab

Return to Music X

Music X Bass Tab








	
	untitled




-------------------------------------------------------------------------------
                        LAPD - Offspring
-------------------------------------------------------------------------------

Intro             X12
g------------------
d------------------
a-2222-2-22222-2-22
e------------------

Verse/Solo
g--------------
d--------------
a-2-222-3-3-0-0
e--------------

Chorus       X3
g--------------*------------
d-99-88-7------*------------
a--------77-55-*---5--------
e--------------*-5---7-7-7-7

-------------------------------------------------------------------------------
  development and support by
dmitry ivanov