rock
 
|tablatures   |lyrics   |discussion forums   |more tabs @ XGuitar.com

Offspring tabs

Killboy Powerhead guitar tab


Date: Mon, July 28 1997
From: Peter Ferragine (iginition@yesic.com)
Group: Offspring
Album: SMASH
Released: 1994 epitaph records
Track: 10
Title: killboy powerhead

/ - slide
x - scratch
* - repeat

intro/verse

|----------------------|
|----------------------|
|-9--9/7/9---12---x-11-|
|-9--9/7/9---12---x-11-|
|-7--7/5/7---10---x-9--|
|----------------------|

chorus

|------------------------|
|------------------------|
|-9--5--7--9-9--5-5--7-7-|
|-9--5--7--9-9--5-5--7-7-|
|-7--3--5--7-7--3-3--5-5-|
|------------------------|

rhythm 1

|---------------------|
|---------------------|
|-4-2-2-4-2-2-4-4-7-4-|
|-4-2-2-4-2-2-4-4-7-4-|
|-2-0-0-2-0-0-2-2-5-2-|
|---------------------|

verse 2

|--------|
|--------|
|-9------|
|-9------| let ring......
|-7------|
|--------|

rhythm 2 

|-----------------------------------|
|-----------------------------------|
|-----------------------------------|
|-10-x-8-/-10-x-8-/-10--10--13--x-8-|
|-10-x-8-/-10-x-8-/-10--10--13--x-8-|
|-8--x-6-/-8--x-6-/-8---8---11--x-6-|

|--------------------------------|
|--------------------------------|
|--------------------------------|
|-10*--6*--8*--10-10---6-6---8-8-|
|-10*--6*--8*--10-10---6-6---8-8-|
|-8*---4*--6*--8--8----4-4---6-6-|

lyrics

he's a pistol grip and a lightning rod hammer step
he always busts his knuckles
when he's wrenchin' up his shit
he just a killboy powerhead...yeah
you know i saw his woman
she was writing his name in blood
you know i saw his woman
hard as a rock
she said she was his baby
who looked just like a hoover dam
you know i saw his woman
hard as a rock
he just a killboy powerhead
killboy powerhead
killboy powerhead
killboy powerhead...yeah 
  development and support by
dmitry ivanov