rock
 
|tablatures   |lyrics   |discussion forums   |more tabs @ XGuitar.com

Offspring tabs

Kill The President bass tab

# intro # X11   !rhythm changes!
G------------------------------------|
D------------------------------------|
A-------7-----10109----7-----5-557---|
E---0-00--00-0-----0-00--00-0--------|
:
# verse # X2
G-----------------------------------------------------|
D-----------------------------------------------------|
A---7-7-7-7-7-7-8-8-8-5-5-5-3-3-3---------------------|
E---------------------------------5-5-5-0-0-0-0-0-0---|
:
# chorus # X3   !brackets only first time!
G------------------------|
D------------------------|
A--(7)--131012-810-8-7---|
E------------------------|
:
Play verseX2, chorusX3 and verseX2.
:
# bridge #   X4  (during solo)     # bridge2 #
G-----------------------------|    G-------------------------------------|
D-----------------------------|    D-------------------------------------|
A---------------1-1-1---------|    A---7---7---7---7---77--77--77--7777--|
E---0-0-0-0-0-0-------3-3-3---|    E-------------------------------------|
:
Then play chorusX3 and introX15.5
:
# outro #
G-------------------------|-----3X-------|-------------------|
D-------------------------|--------------|-------------------|
A---0-0-0---0-0-0---0-0-0-|-131012-810-8-|-7-7--7-7-7--5-7---|
E-------------------------|--------------|-------------------|
  development and support by
dmitry ivanov