rock
 
|tablatures   |lyrics   |discussion forums   |more tabs @ XGuitar.com

Offspring tabs

Kick Him When He's Down guitar tab

Album: Ignition
Year: 1992
Track: 
Title: Kick him when he's down

# intro #          *=play 15X
E------------------------------------------------------------|
B------------------------------------------------------------|
G----*---*--9-9-9-9-9-9-9--9-9-----7-7-----5---4---3---------|
D---6---9---7-7-7-7-7-7-7--7-7-9-9-5-5-7-7-3-5-2-4-1-3-3-3---|
A---4---7----------------------7-7-----5-5---3---2---1-1-1---|
E------------------------------------------------------------|
    \_____________________palm-muted_____________________/

# main-riff #   X2       m=palm-mute
E------------------------------------------|
B------------------------------------------|
G--11---9----------------------------------|
D--11---9--9--4-4-4--4-4-4--4-4-4--4-4-4---|
A---9---7--9--4-4-4--4-4-4--4-4-4--4-4-4---|
E----------7--2-2-2--2-2-2--2-2-2--2-2-2---|
              m m    m m    m m    m m

# verse #     X2       *=play X6     m=palm-mute
E-------------------------------------------------------------------|
B-------*----------------*----*-------*-----------------------------|
G--11-11---9-9------11-11---11---11-11---9-9------7-7-7---9-9-9-9---|
D--11-11---9-9-9-9--11-11---11---11-11---9-9-9-9--7-7-7-7-9-9-9-9---|
A---9--9---7-7-9-9---9--9----9----9--9---7-7-9-9--5-5-5-7-7-7-7-7---|
E------m-------7-7------m----m-------m-------7-7--------5-----------|
     
# chorus #   X2    (brackets X3)    *=play X14
E-----------------------------|
B--------------------------*--|
G-(11-11--7-7-------9-9)--9---|
D-(11-11--7-7--7-7--9-9)--9---|
A-(-9--9--5-5--7-7--7-7)--7---|
E-(------------5-5-----)------|

Play main-riff, verse and chorus.
                           *=play many times
# bridge #    X3              # bridge2 #    # bridge3 #  (during bridge2)
E--------------------------|  E-------|      E-------------------------------|
B--------------------------|  B----*--|      B-------------------------------|
G--11-11-11-14---9-9-9-----|  G---9---|      G-------------------------------|
D--11-11-11-14---9-9-9-9---|  D---9---|      D------------------9-11-12-14---|
A---9--9--9-12---7-7-7-9---|  A---7---|      A---7---9--11--12---------------|
E----------------------7---|  E---m---|      E-------------------------------|

Play verse and chorus X3 (play end-chord MANY times). 
Slide down and it`s done!
  development and support by
dmitry ivanov