rock
 
|tablatures   |lyrics   |discussion forums   |more tabs @ XGuitar.com

Offspring tabs

Jennifer Lost The War guitar tab

Album: The Offspring
Year: 1989
Track: 1
Title: Jennifer lost the war
               )
|-9p7-9p7-9p7-10-|
|----------------|
|----------------|
|----------------|
|----------------|
|----------------|

Riff 2 -- This is played after the first chorus
Play it fast, it's hard to tell the first part of it, but even if you ca
play it, mess around in an E blues scale, and it'll sound fine.
                                       )  )
|--------------------)--)-----)--)----15-15-15-12--)--)-----------------
|-------------------12-12----12-12----------------15-15-15-12-----------
|-------------------12-12----12-12----------------------------14p12-----
|-------------12-14-------14-------14-------------------------------14-X
|----10/12-14-----------------------------------------------------------
|-12--------------------------------------------------------------------

Riff 3 -- This is played after the second chorus
This is all I could make of it, you'll have to play it at lightning spee
and even then it sounds wrong.  At least it doesn't last very long :)

|-----------------------------------------------------------------------
|------------------8-----7------------------8-----7-----8-----7---------
|-----10-----9-----------------10-----9-----------------------------10--
|-7-7----7-7---7-7---7-7---7-7----7-7---7-7---7-7---7-7---7-7---7-7-----
|-----------------------------------------------------------------------
|-----------------------------------------------------------------------

Riff 4 -- This is played after the bridge, it's kinda cool, just bend th
lower string up to the point where it matches the pitch of the upper str

|-------7----9---12---14--16--|
|-7-----10---12--15---17--19--|
|-9---------------------------|
|-----------------------------|
|-----------------------------|
|-----------------------------|

Riff 5 -- This is played at the end of the song, it's a nice ending

|-12-12-10-9~~-10-10-9-7~~--|
|---------------------------|
|---------------------------|
|---------------------------|
|---------------------------|
|---------------------------|

The little intro thing is E(hi) D C#, D C# B
  development and support by
dmitry ivanov