rock
 
|tablatures   |lyrics   |discussion forums   |more tabs @ XGuitar.com

Offspring tabs

Jennifer Lost The War bass tab

The Offspring - Jennifer Lost The War
:
# intro # 0:03
G-|-----------3X-------------------|----|
D-|--------------------------------|----|
A-|--------------------------------|----|
E-|-0-0-0-0-5-5-5-5-3-3-3-3-2-2-2-2|0---|
:
# verse #      (But nobody really cares...)
G-------------------------------------------------------------------4-4---|
D-------------------------------------------------------------------------|
A-----------0-------5-------7-------3-------5-------2-2-2-2-2-0-2-2-------|
E---0---------------------------------------------------------------------|
:
# verse-part2 # X3 !play all notes 4-5X!  # chorus #   !play all notes 15X!
G-------------------------------|         G-----------------------|
D-------------------------------|         D-----------------------|
A---0-------5-------7-------7---|         A---5---------------2---|
E-------------------------------|         E-----------------------|
:
# solo-bg #   !play all notes 6X!
G---------------------------------------------------------------|
D---------------------------------------------------------------|
A-----------0-------5-------7------10-------9-------7-------7---|
E---0-----------------------------------------------------------|
:
# verse2 # X2  *=play 6X  (Phoebe lost the war...)
G-------------------------------------------------------------------4-4---|
D------------*-------*-------*-------*-------*----------------------------|
A----*------0-------5-------7-------3-------5-------2-2-2-2-2-0-2-2-------|
E---0---------------------------------------------------------------------|
:
Then play verse-part2X3 and chorusX2.
:
# bridge #   %=pause    *=play 6X                                       >
G-|--------------2X-----------------|------------2X-------------------|->
D-|---------------------------------|--*-------------------*----------|->
A-|-2%2%2%2%2%2%2%2%0%0%0%0%--------|-2-------2-2-2-5--4--0--------*--|->
E-|-------------------------0%0%0%0%|-----------------------------0---|->
>bridge
>-|---------4X---------|-|
>-|--*-----------------|-|
>-|-2-------2-2-2-5--4-|-|
>-|--------------------|-|
:
Then play verse-part2X3 and chorusX2.
:
# outro #
G----------------------------------------|
D---2------------------------------------|
A----------------------------------------|
E------------------------------------0---|
  development and support by
dmitry ivanov