rock
 
|tablatures   |lyrics   |discussion forums   |more tabs @ XGuitar.com

Offspring tabs

It'll Be A Long Time bass tab

Offspring - It'll Be a Long Time
Submitted By: Anavrin
EMail: joe_the_man3@hotmail.com
Album: Smash
As tabbed by Joe Muggah


Verse
G|------------------------------------------------------------|
D|-----------------------------5-5-5-5------------------------|
A|--3-5-5----3-5-5----3-3-3-3-----------5-5----3-5-5----3-5-5-|
E|------------------------------------------------------------|

(continued)
G|---------------------------------|
D|-----------5-5-5-5---------------|
A|--3-3-3-3-----------5-5----------|
E|---------------------------------|


Pre-Chorus
G|------------------------------------------------------------|
D|---------------------------------------------5-5-5-5--------|
A|--3-5-5-5-5-5-5-5--3-5-5-5-5-5-5-5--3-3-3-3-----------5-5---|
E|------------------------------------------------------------|

(continued)
G|------------------------------------------------------------|
D|------------------------------------------------------------|
A|--5-5-5-5-5-5--3-5-5-5-5-5-5-5--3-5-5-5-5-5-5-5--3-3-3-3----|
E|------------------------------------------------------------|

(continued)
G|---------------------------------|
D|---------------------------------|
A|--3-3-3-3-------------3----------|
E|-----------5-5-5-5-5-------------|


Chorus 1
G|------------------------------------------------------------|
D|------------3-----------------------------------------------|
A|--5-5--3-5-----3-3-3-3--5-5-5-5--1-1-1-1--3-3-3-3--3-----5--|
E|------------------------------------------------------5-----|

(continued)
G|------------------------------------------------------------|
D|------------3-----------------------------------------------|
A|--5-5--3-5-----3-3-3-3--5-5-5-5--1-1-1-1--3-3-3-3--3-----5--|
E|------------------------------------------------------5-----|

(continued)
G|------------------------------------------------------------|
D|--------------------3---------------------------------------|
A|--1-1-1-1--3-3-3-3-----3--5--5-5-5--3----3------------------|
E|-------------------------------------------5----------------|


Chorus 2
G|------------------------------------------------------------|
D|------------3-----------------------------------------------|
A|--5-5--3-5-----3-3-3-3--5-5-5-5--1-1-1-1--3-3-3-3--3-----5--|
E|------------------------------------------------------5-----|

(continued)
G|------------------------------------------------------------|
D|------------3-----------------------------------------------|
A|--5-5--3-5-----3-3-3-3--5-5-5-5--1-1-1-1--3-3-3-3--3-----5--|
E|------------------------------------------------------5-----|

(continued)
G|------------------------------------------------------------|
D|-----------------------------------------------3------------|
A|--1-1-1-1--3-3-3-3-----3--5--1-1-1-1--3-3-3-3-----3--5--5-5-|
E|--------------------3---------------------------------------|


Bridge 1
G|------------------------------------------------------------|
D|---------------5-5------------------------5-5---------------|
A|--5-5--3-3-3--------5-5-5----5-5--3-3-3--------5-5-5--------|
E|------------------------------------------------------------|


Bridge 2
G|--------------------------------------------|
D|-----------5-5-5-5--------------------------|
A|--3-3-3-3-----------------------------------|
E|--------------------5-5-5-5-5-5-5-5---------|


Outro
G|----------------------|
D|----------------------|
A|--3--5-5----3-5-5-----|
E|----------------------|


Verse
Pre-Chorus
Chorus 1
Verse
Pre-Chorus
Chorus 2
Bridge 1
Bridge 2
Verse
Pre-Chorus
Chorus 1
Outro
  development and support by
dmitry ivanov