rock
 
|tablatures   |lyrics   |discussion forums   |more tabs @ XGuitar.com

Offspring tabs

Intermission bass tab

g------------------------------------------------------------------------------------
d-----------------------------------------------------------------------------------5
a-11-8-10----8-11-11-11-8-10----10-6-8----6-10-10-10-6-8----11-8-10-8-11-11-11-8-10--
e----------------------------------------------------------------------------------3-

g-----------------------------------------------------------------------
d-----------------------------------------------------------------------
a ----------------------------------------------------------------------
e8--5-7---5-8-8-8-5-7---7-3-5--3--7-7-7-3-5---8--5-7---5-8-8-8-5-7--3-12

g-----------------------------------------------------------------------
d-----------------------------------------------------------------------
a------------------------------------------11-8-10--8-11-11-11-8-10---11
e-13--13-11--11-9--9-8---11--11-9--9-8--8-6-------------------------8---
  development and support by
dmitry ivanov