rock
 
|tablatures   |lyrics   |discussion forums   |more tabs @ XGuitar.com

Offspring tabs

Hypodermic guitar tab

Album: Ignition
Year: 1992
Track: 7
Title: Hypodermic

# verse #    X 8   (brackets only first time)    # pre-chorus #   X 3
E-------------------------------------------|    E------------------------|
B-------------------------------------------|    B------------------------|
G--(12\)-----------------5-5-5-5------7-7---|    G------------10--5---7---|
D--------7-7-7-7--7--3-3-5-5-5-5--5-5-7-7---|    D---7-7-7-7--10--5---7---|
A--------7-7-7-7--7--3-3-3-3-3-3--5-5-5-5---|    A---7-7-7-7---8--3---5---|
E--------5-5-5-5--5--1-1----------3-3-------|    E---5-5-5-5--------------|
         \_________palm-mute____________/

# chorus #    X 2  (brackets only second time)                
E------------------------------------------------------------------|
B------------------------------------------------------------------|
G--10---12------------5-7-7------------5------(---------5-7-7----)-|
D--10---12---7-7-7-7--5-7-7---7-7-7-7--5-5-5--(7-7-7-7--5-7-7--7\)-|
A---8---10---7-7-7-7--3-5-5---7-7-7-7--3-5-5--(7-7-7-7--3-5-5--7\)-|
E------------5-5-5-5----------5-5-5-5----3-3--(5-5-5-5---------5\)-|

Play verse, pre-chorus, chorus, verse, pre-chorus and chorus again.

# outro #    X 10    (only the bass changes at the end!!!)
E-------------------------------------|
B-------------------------------------|
G------------5-7-7------------5-------|
D---7-7-7-7--5-7-7---7-7-7-7--5-5-5---|
A---7-7-7-7--3-5-5---7-7-7-7--3-5-5---|
E---5-5-5-5----------5-5-5-5----3-3---|
  development and support by
dmitry ivanov