rock
 
|tablatures   |lyrics   |discussion forums   |more tabs @ XGuitar.com

Offspring tabs

Hypodermic bass tab

# verse # X8                              # pre-chorus # X3
G------------------------------------|    G---------------------------------|
D------------------------------------|    D-------------3-3-----------------|
A-----------------3-33-333----5-55---|    A---0-00-00-0-----3-33-33-3-5-5---|
E---5-55-55-551-11--------3-33-------|    E---------------------------------|
:
# chorus # X2  (brackets only second time)
G-----------------------------------------------(-------------------)-|
D---3-----5-------------------------------------(-----------------7\\)-|
A---------------0-0-0-0-3-35-55-0-0-0-0-3-3-----(0-0-0-0-3-3-5-55---)-|
E-------------------------------------------3-33(-------------------)-|
:
Play verseX8, pre-chorusX3, chorusX2, verseX8, pre-chorusX3 and chorusX1.5.
:
# outro # X10
E-------------------------------------|
B-------------------------------------|
G-------------------------------------|
D-----------------------2-2-3-35-55---|
A---0-0-0-0-3-35-55-0-0---------------|
E-------------------------------------|
  development and support by
dmitry ivanov