rock
 
|tablatures   |lyrics   |discussion forums   |more tabs @ XGuitar.com

Offspring tabs

Hit That bass tab

artist- the offspring
song- hit that

intro x1
-----------------------------------------
------------------------------------------
-------------------------------------------
---3---5-----0-0-0-------------------------



verse x7

--------------------------------------------
-------------------------------------------
---5-7---5-7---5-7---5-7---5-7---5-7--------------------
--0----0-----0-----0-----0-----0------7653-------------

pre chorus

---------------------------------
---5---5---5---5----7--7--7--7---
---------------------------------
-3---3---3---3----5---5--5--5----


chorus

----------------------------------------
------------------5-5-5-5--7-7-7-7----x2
-7-7-7-7-7-7-7-7------------------------
0-0-0-0-0-0-0-0--3-3-3-3--5-5-5-5-------

------------------------------------------
-------------------10-10-10-10--7-7-7-7---
-7-7-7-7-7-7-7-7--------------------------
0-0-0-0-0-0-0-0---8--8--8--8---5-5-5-5----

-----------------------------------------
----------9-9-9-9------------------------
-7-7-7-7---------------------------------
0-0-0-0--7-7-7-7----3--5---0-0-0---------





dats pretty much the whole song, im sure its 100& correct
its an easy song, it might not look write but if u listen carefully
its right.
  development and support by
dmitry ivanov