rock
 
|tablatures   |lyrics   |discussion forums   |more tabs @ XGuitar.com

Offspring tabs

Have You Ever guitar tab

                              have you ever
                          offspring - americana
                                     tabbed by j.d.sutcliff@talk21.com



    intro                                                               
E-----------------------------------------------------------------------
B-----------------------------------------------------------------------
G---9-9-x-x-x-x-9-9-x-x-x-x-9-9-x-x-x-x-9-9-x-x-x-x-9-9-x-x-x-x-9-9-x---
D---9-9-x-x-x-x-9-9-x-x-x-x-9-9-x-x-x-x-9-9-x-x-x-x-9-9-x-x-x-x-9-9-x---
A---7-7-x-x-x-x-7-7-x-x-x-x-7-7-x-x-x-x-7-7-x-x-x-x-7-7-x-x-x-x-7-7-x---
E-----------------------------------------------------------------------
                                                                        

                                                                        
E-----------------------------------------------------------------------
B-----------------------------------------------------------------------
G---x-9-9-9-9-9-9-9-9-9-9-9-9-9-9---------------------------------------
D---x-9-9-9-9-9-9-9-9-9-9-9-9-9-9---------------------------------------
A---x-7-7-7-7-7-7-7-7-7-7-7-7-7-7---------------------------------------
E-----------------------------------------------------------------------
                                                                        

        fill 1                           2x                             
E---||-----------------------------------||-----------------------------
B---||-----------------------------------||-----------------------------
G---||*-9-9-9-9-9-9-9-9---------7-7-7-7-*||-----------------------------
D---||*-9-9-9-9-9-9-9-9-5-5-5-5-7-7-7-7-*||-----------------------------
A---||--7-7-7-7-7-7-7-7-5-5-5-5-5-5-5-5--||-----------------------------
E---||------------------3-3-3-3----------||-----------------------------
                                                                        

        verse                                                           
E---||------------------------------------------------------------------
B---||------------------------------------------------------------------
G---||*-----------------------------------------------------------------
D---||*-7/10\9/10---7---7/10\9/10---7-7/10\9/10---7---7/10\9/10---5-5---
A---||------------------------------------------------------------------
E---||------------------------------------------------------------------
                                                                        

                                     2x                                 
E------------------------------------||---------------------------------
B------------------------------------||---------------------------------
G-----------------------------------*||---------------------------------
D---/9\7/9---5-5/9\7/9---5-/-7-10-9-*||---------------------------------
A------------------------5-/-7-10-9--||---------------------------------
E------------------------3-/-5-8--7--||---------------------------------
                                                                        

        chorus                                                        4x  
E||-------------------------------------------------------------------|| 
B||-------------------------------------------------------------------||
G||*-----------------------------------------------------------------*||
D||*-9-9-9-9-9-9-9-9-5-5-5-5-5-5-5-5-----------------7-7-7-7-7-7-7-7-*||
A||--7-7-7-7-7-7-7-7-3-3-3-3-3-3-3-3-5-5-5-5-5-5-5-5-5-5-5-5-5-5-5-5--||
E||----------------------------------3-3-3-3-3-3-3-3------------------||
                                                                        

    fill 2 - cross fade                                                 
E-----------------------------------------------------------------------
B-----------------------------------------------------------------------
G-----------------------------------------------------------------------
D---2-2-2-2-2-2-2-2-2-2-2-2-2-2-2-2-2-2-2-2-2-2-2-2-2-2-2-2-2-2-2-2-2---
A-----------------------------------------------------------------------
E-----------------------------------------------------------------------
                                                                        

         rythym 1 - staccatto                                           
E-----||----------------------------------------------------------------
B-----||----------------------------------------------------------------
G---9-||-/-9-9-9-9---------7-7-7-7-9-9-9-9-5-5-5-5----------------------
D---9-||-/-9-9-9-9-5-5-5-5-7-7-7-7-9-9-9-9-5-5-5-5----------------------
A---7-||-/-7-7-7-7-5-5-5-5-5-5-5-5-7-7-7-7-3-3-3-3----------------------
E-----||-----------3-3-3-3----------------------------------------------
                                                                        

                           2x                                           
E---||---------------------||-------------------------------------------
B---||---------------------||-------------------------------------------
G---||*-7-7-7-------------*||-------------------------------------------
D---||*-7-7-7-------------*||-------------------------------------------
A---||--5-5-5--------------||-------------------------------------------
E---||--------0-2-3---2-0--||-------------------------------------------
                                                                        

  development and support by
dmitry ivanov