rock
 
|tablatures   |lyrics   |discussion forums   |more tabs @ XGuitar.com

Offspring tabs

Have You Ever bass tab

BASS TAB

song: have you ever

band: offspring

album: Americana

tabbed by: katie dirksmeier (email: 102660.2234@compuserve.com)



The first tab off the new album, Americana! (11-17-98)



intro:

G--------------------------------------------------------------------------

---------------------------------------------------------------------------

-----------------------

D--------------------------------------------------------------------------

---------------------------------------------------------------------------

-----------------------

A-------7----------------------7----------------------7--------------------

--7----------------------7----------------------7--------------------------

----------------------

E---------0--0--0--0--0--0----0--0--0--0--0--0---0--0--0--0--0--0---0--0--0

--0--0--0----0--0--0--0--0--0---0--0--0--0--0--0--0--0--0--0--0--0--0



first "falling" part:                             (2x)         All other

"falling" parts and Chorus ("some days my soul's...): (2x)

G-------------------------------------------------I

G----------------------------------------------------I

D------------------------------------------------*I

D---------------------------------------------------*I

A-------7-----7------------5-------------------*I

A------------7------3--------------5--------------*I

E--------------------3---------------------------I

E---------------------------3-----------------------I



verses:

(2x)

G--------------------------------------------------------------------------

---------------------------------------------I

D--------------------------------------------------------------------------

--------------------------------------------*I

A---------------------------------------------------------------------5--5-

-5--5--5--5--5--5--7--7--7--10--9-*I

E---------0--0--0--0--0--0--0--0--3--3--3--3--3--3--3--3-------------------

---------------------------------I



solo bit in the middle:                                 (7x)

G--------------------------------------------------------------------------

-----------------------------------I

D--------------------------------------------------------------------------

----------------------------------*I

A-------7--7--7--7-----------------5--5--5--5--7--7--7--7--3--3--3--3--5--5

---------------------*I

E----------------------3--3--3--3------------------------------------------

------------0--2--3--2--0----I



7th time, play this after the stuff above:

G--------------------------------------------------------------------------

---I

D--------------------------------------------------------------------------

---I

A-------3--3--3--3--5--5--------------------3--3--3--3--5-------------I

E-----------------------------0--2--3--2--0-------------------------------I



That's it! Listen to the song for timing, etc. Order goes something like

this:

Intro          1x

Falling      2x

Verse        2x

Chorus/

  Falling     4x

Verse         2x

Chorus/

   Falling     6x

Intro            1x

Solo thing  8x

Any questions, email me.
  development and support by
dmitry ivanov