rock
 
|tablatures   |lyrics   |discussion forums   |more tabs @ XGuitar.com

Offspring tabs

Gotta Get Away guitar tab


Date: Sun, July 20 1997
From: Peter Ferragine (iginition@yesic.com)
Group: Offspring
Album: SMASH
Released: 1994 epitaph
Track: 4
Title: gotta get away

x - scratch
/ - slide

intro

|-10-10----3-3-2--0----10-10----3-3-5--0-|
|----------3-3-2--0-------------3-3-5--0-|
|----------------------------------------|
|----------------------------------------|
|----------------------------------------|
|----------------------------------------|

main riff

|-----------------------------------------------------------|
|-----------------------------------------------------------|
|-9-9/7-7-9-9/7-7-9-9/12-12-9-9/12-12-9-9/14-14-9-10-9-10-9-|
|-9-9/7-7-9-9/7-7-9-9/12-12-9-9/12-12-9-9/14-14-9-10-9-10-9-|
|-7-7/5-5-7-7/5-5-7-7/10-10-7-7/10-10-7-7/12-12-7-8--7-8--7-|
|-----------------------------------------------------------|

verse

|-----------------------------------------------------------------|
|-----------------------------------------------------------------|
|-----7-7-----7-7-----9-9-----9-9-----12-12------14---9-10-9-10-9-|
|-----7-7-----7-7-----9-9-----9-9-----12-12------14---9-10-9-10-9-|
|-----5-5-----5-5-----7-7-----7-7-----10-10------12---7-8--7-8--7-|
|-0-0-----0-0-----0-0-----0-0-----0-0-------0-0-------------------|

chorus

|----------------------------------------|
|----------------------------------------|
|-9-9-9--------------------------7-7-7-7-|
|-9-9-9--9/10-10-10-10--5-5-5-5--7-7-7-7-|
|-7-7-7--9/10-10-10-10--5-5-5-5--5-5-5-5-|
|--------7/8--8--8--8---3-3-3-3----------|

lyrics

i'm getting edgy all the time
there's someone around me just a step behind
it's kinda scary, the shape i'm in
the walls are shakin' and they're closin' in
too fast or a bit too slow
i'm paranoid of people and it's startin' to show
there's one guy that i can't shake
over my shoulder is a big mistake
sittin' on the bed
or lyin' wide awake
there's demons in my head
and it's more than i can take
i think i'm on a roll 
but i think it's kinda weak
sayin' all i know is 
i gotta get away from me
i tell you somethin' just ain't right 
my head is on loose but my shoes are tight
avoidin' my friends 'cause they all bug
life is like a riddle and i'm really stumped
if you reason, don't you know
your own preoccupation is where you'll go
i think i'm bein' followed, i look around
it's only my shadow creepin' on the ground
  development and support by
dmitry ivanov