rock
 
|tablatures   |lyrics   |discussion forums   |more tabs @ XGuitar.com

Offspring tabs

Gotta Get Away bass tab

From: "Chris Houston"
Date:          Thu, 1 Jun 1995 00:10:14 GMT+0200
Subject:       gotta_get_away.btab : by Offspring

Bass Tab For Offspring's "Gotta Get Away", from the album Smash.
By Chris Houston (g93h7323@warthog.ru.ac.za)

Standard Tuning.

Intro:

G |-----------------|-----------------||
D |-----------------|-----------------||
A |-3-4-5-5-5-5-5-5-|---5-7-----7-7---||
E |-----------------|-O-----O-O-----O-||

Verse:

G |-----------------|-----------------|-----------------|---------------||
D |-----------------|-----------------|-----5-5-----7-7-|---------------||
A |-----5-5-----5-5-|-----7-7-----7-7-|-----------------|-7-7-7-8-7-8-7-||
E |-O-O-----O-O-----|-O-O-----O-O-----|-O-O-----O-O-----|---------------||

Chorus:

G |-----------------|-----------------||
D |-----------------|-5-5-5-----------||
A |-7-7-7-O-3-3-3-O-|-------O-5-5-5-6-||
E |-----------------|-----------------||


Play like this:

Drum Intro: pause for space of 2 Intros. (4 bars)
repeat Intro 8 times.
repeat Verse 6 times.
repeat Chorus 4 times
repeat Verse 6 times.
repeat Chorus 6 times.
Drum and Lead Guitar: pause for space of 2 Verses. (8 bars)
repeat Verse 2 times.
repeat Chorus 8 times.
  development and support by
dmitry ivanov