rock
 
|tablatures   |lyrics   |discussion forums   |more tabs @ XGuitar.com

Offspring tabs

Gone Away guitar tab

Album: Ixnay on the Hombre
Year: 1997
Track: 7
Title: Gone Away

Slow and melodic song that has cool riffs and is also kinda easy to play.

# INTRO #   X2   *=play 8X         # INTRO2 #  *=play 8X
E-------------------|              E---------------------|
B----*-------*------|              B-----*---*----*---*--|
G--10----*--8----*--|              G---17---8---15--10---|
D--10---6---8---8---|              D---15---6---13---8---|
A---8---6---6---8---|              A---------------------|
E-------4-------6---|              E---------------------|

# melody #           /=slide
E------------------------------------------------------------------|
B------------------------------------------------------------------|
G----------10------------8------------8---8-10-8-------------------|
D---8/10-----------------------------------------8---8--8-10-------|
A--------8------10/11--------10/11-----------------------------8---|
E---------------------11-----------11------------------------------|

->Play INTRO X4 or INTRO2 X2.

# bridge #
E-------8---------6-------6-------4-3--3----------8---------6-------6-------|
B-----6---------4-------4----6-----------6-4----6---------4-------4----6----|
G---5-------2/3-------3--------5--------------5-------2/3-------3--------5--|
D---------------------------------------------------------------------------|
A---------------------------------------------------------------------------|
E---------------------------------------------------------------------------|

->Play INTRO X4 or INTRO2 X2 and INTRO X1.75 (acoustic) or melody.

# bridge2 #  (after acoustic part)
E-------------------------------------|
B-------------------------------------|
G-------------------------------------|
D---8-8-8-8-8-8-8-8-8-8-8-8-8-8-8-8---|
A---8-8-8-8-8-8-8-8-8-8-8-8-8-8-8-8---|
E---6-6-6-6-6-6-6-6-6-6-6-6-6-6-6-6---|
    \______palm-muted_____________/

->Play INTRO X2 or INTRO2 X2, bridge and INTRO X5 or INTRO2 X3.
Let the END ring and there it is.
  development and support by
dmitry ivanov