rock
 
|tablatures   |lyrics   |discussion forums   |more tabs @ XGuitar.com

Offspring tabs

Gone Away bass tab

Bass tab for Gone Away by The Offspring


Intro/chorus

G|-----------------------------------------------------------------|
D|-3-3-3-3-3-3-3-3-------------------------------------------------|
A|---------------------------------6-6-6-6-6-6-6-6-----------------|
E|-----------------4-4-4-4-4-4-4-4-----------------6-6-6-6-6-6-6-6-|

Keep repeating this riff for the intro, chorus and wherever else it fits.


Verse
						  |-------*--------|
G|-----------------------------------------------------------------|
D|-----------------------------------------------------------------|
A|-------------------------------3-6-6-6-6-6-6-6-5-----------------|
E|-1-1-1-1-1-1-1-3-4-4-4-4-4-4-4-------------------6-6-6-6-6-6-5-4-|
							
This is the verse riff, and is also the bridge part.  The last time you play it on the bridge, replace * with -6- x16.

At the end of the song, after the chorus, play:

E|-6-6-6-6-6-6-6-6-1----|

This is all you need.
  development and support by
dmitry ivanov