rock
 
|tablatures   |lyrics   |discussion forums   |more tabs @ XGuitar.com

Offspring tabs

Get It Right bass tab

Intro x2

G:-----------------------------------------------------
D:---3------3333-5-6-5-1111-5-6-5------1-6-5-3333333---
A:--------------------------------4444-----------------
E:-----------------------------------------------------

Verse                   x3

G:----------------------|------------------------------
D:---3>--1>-----1>-3>---|---3>--1>---------------------
A:-----------4>---------|----------4>-0-3>-------------
E:----------------------|------------------------------

Chorus 			x3

G:----------------------|------------------------------
D:---3>-6>-1>-----------|-----1>-2---------------------
A:-----------3>---------|---4>-------------------------
E:----------------------|------------------------------

Intro x2

Verse x2		

Chorus x3 (only first part, then bridge)

Bridge 	

G:----------------------------------------
D:---1>-----------1>----------------------
A:-------4>--0>-------4>--1>--3>----------
E:----------------------------------------

Intro  x2

Verse2 x4 	

G:----------------------------------------
D:---3---1-------1---3--------------------
A:-----------4----------------------------
E:----------------------------------------

Chorus 			x3

G:----------------------|------------------------------
D:---3>-6>-1>-----------|-----------1-1-1-1-2----------
A:-----------3>---------|---4-4-4-4--------------------
E:----------------------|------------------------------

-Stig-
  development and support by
dmitry ivanov