rock
 
|tablatures   |lyrics   |discussion forums   |more tabs @ XGuitar.com

Offspring tabs

Get A Job guitar tab

			get a job
		offspring - americana

tabbed by j.d.sutcliff@talk21.com using bucket'o'tab v2.5


    acoustic intro and verse                                            
E---1-1-1-1-1-1-1-1---1-1-1-1-1-1-1-1---1-1-1-1-1-1-1-1---3-3-3-3-3-3---
B---1-1-1-1-1-1-1-1---3-3-3-3-3-3-3-3---1-1-1-1-1-1-1-1---5-5-5-5-5-5---
G---2-2-2-2-2-2-2-2---3-3-3-3-3-3-3-3---2-2-2-2-2-2-2-2---5-5-5-5-5-5---
D---3-3-3-3-3-3-3-3---3-3-3-3-3-3-3-3---3-3-3-3-3-3-3-3---5-5-5-5-5-5---
A---3-3-3-3-3-3-3-3---1-1-1-1-1-1-1-1---3-3-3-3-3-3-3-3---3-3-3-3-3-3---
E---1-1-1-1-1-1-1-1---x-x-x-x-x-x-x-x---1-1-1-1-1-1-1-1---x-x-x-x-x-x---
                                                                        

                                                                        
E---3-3---1-1-1-1-1-1-1-1---1-1-1-1-1-1-1-1-3---1-1-1-1---3-3-3-3---1---
B---5-5---1-1-1-1-1-1-1-1---3-3-3-3-3-3-3-3-5---1-1-1-1---5-5-5-5---1---
G---5-5---2-2-2-2-2-2-2-2---3-3-3-3-3-3-3-3-5---2-2-2-2---5-5-5-5---2---
D---5-5---3-3-3-3-3-3-3-3---3-3-3-3-3-3-3-3-5---3-3-3-3---5-5-5-5---3---
A---3-3---3-3-3-3-3-3-3-3---1-1-1-1-1-1-1-1-3---3-3-3-3---3-3-3-3---3---
E---x-x---1-1-1-1-1-1-1-1---x-x-x-x-x-x-x-x-x---1-1-1-1---x-x-x-x---1---
                                                                        

                     chorus/verse                                       
E---1-1-1-1-1-1-1-||-1-x-1-x-1-x-1-x-|-6-x-6-x-6-x-6-x-|----------------
B---1-1-1-1-1-1-1-||-1-x-1-x-1-x-1-x-|-6-x-6-x-6-x-6-x-|----------------
G---2-2-2-2-2-2-2-||-2-x-2-x-2-x-2-x-|-7-x-7-x-7-x-7-x-|----------------
D---3-3-3-3-3-3-3-||-----------------|-----------------|----------------
A---3-3-3-3-3-3-3-||-----------------|-----------------|----------------
E---1-1-1-1-1-1-1-||-----------------|-----------------|----------------
                                                                        

                                       rythym fill                      
E---1-x-1-x-3-x-3-x-|-1-x-1-x-1-x-1-||-6-x-6-x-6-x-6-x-|----------------
B---1-x-1-x-3-x-3-x-|-1-x-1-x-1-x-1-||-6-x-6-x-6-x-6-x-|----------------
G---2-x-2-x-5-x-5-x-|-2-x-2-x-2-x-2-||-7-x-7-x-7-x-7-x-|----------------
D-------------------|---------------||-----------------|----------------
A-------------------|---------------||-----------------|----------------
E-------------------|---------------||-----------------|----------------
                                                                        

                                                                        
E---1-x-1-x-1-x-1-x-|-6-x-6-x-6-x-6-x-|-3-x-3-x-3-x-3-x-||--------------
B---1-x-1-x-1-x-1-x-|-6-x-6-x-6-x-6-x-|-3-x-3-x-3-x-3-x-||--------------
G---2-x-2-x-2-x-2-x-|-7-x-7-x-7-x-7-x-|-5-x-5-x-5-x-5-x-||--------------
D-------------------|-----------------|-----------------||--------------
A-------------------|-----------------|-----------------||--------------
E-------------------|-----------------|-----------------||--------------
                                                                        

  development and support by
dmitry ivanov