rock
 
|tablatures   |lyrics   |discussion forums   |more tabs @ XGuitar.com

Offspring tabs

Genocide guitar tab


Date: Sun, July 20 1997
From: Peter Ferragine (iginition@yesic.com)
Group: Offspring
Album: SMASH
Released: 1994 epitaph records
Track: 5 
Title: genocide

/ - slide
PM- palm mute
h - hammer on

intro 

|--------------------------------------------------------------------|
|--------------------------------------------------------------------|
|----------------------------------------------------5--5-5-5--5-5-5-|
|-5--5-5-5--5-5-5--5--5-5-5--5-5-5--3--3-3-3--3-3-3--5--5-5-5--5-5-5-|
|-5--5-5-5--5-5-5--5--5-5-5--5-5-5--3--3-3-3--3-3-3--3--3-3-3--3-3-3-|
|-3--3-3-3--3-3-3--3--3-3-3--3-3-3--1--1-1-1--1-1-1------------------|

riff

|-6-6-6-5-5-5-6-6/8-8-8-6-6-6-5-5---5-5-5-5h6-----------------|
|---------------------------------6-----------1/5-5-5-6-5-3-5-|
|-------------------------------------------------------------|
|-------------------------------------------------------------|
|-------------------------------------------------------------|
|-------------------------------------------------------------|

|------------------------------------------------|
|------------------------------------------------|
|-0-0-0-0-0-0-0-0-0-0-0-0-0-0-0-0-0-0-0--5-5-5-5-|
|----------------------------------------5-5-5-5-|
|----------------------------------------3-3-3-3-|
|------------------------------------------------|

chorus

|--------------------------------------------------------------------------|
|--------------------------------------------------------------------------|
|-----------------------------------10--10-10-10--10-10-10-5--5-5-5--5-5-5-|
|-5--5-5-5--5-5-5--8--8-8-8--8-8-8--10--10-10-10--10-10-10-5--5-5-5--5-5-5-|
|-5--5-5-5--5-5-5--8--8-8-8--8-8-8--8---8--8--8---8--8--8--3--3-3-3--3-3-3-|
|-3--3-3-3--3-3-3--6--6-6-6--6-6-6-----------------------------------------|

bridge

|---------|
|---------|
|-8-----5-|
|-8-----5-|
|-6-----3-|
|---------|

coda

PM
|---------------------------------------|
|---------------------------------------|
|---------------------------------------|
|-------------------10-10-10-10-5-5-5-5-|
|--5-5-5-5-8-8-8-8-8--8--8--8--3-3-3-3--|
|-3-3-3-3-6-6-6-6-----------------------|

played over coda

|-------------------------|
|-------------------------|
|-------------10-10---5-5-|
|-5-5---8-8---10-10---5-5-|
|-5-5---8-8---8--8----3-3-|
|-3-3---6-6---------------|

lyrics

our lives run different ways
through the rain i see you in the sun
our star shines anyway
if you wish apon it we are one
dog eat dog
every day
on our fellow man we pray 
dog eat dog 
to get by
hope you like my genocide
i find it such a shame
through the pain i see things as they are
we're served up on a plate
the pedestal is high enough to fall
and if in time
we can see the errors of our ways
would anyone change anyhow
our time is up
i'd bet you'd only run
if you saw what goes inside, our own
i bet you'd lead the way
if it were up to you to decide
but it's not
  development and support by
dmitry ivanov