rock
 
|tablatures   |lyrics   |discussion forums   |more tabs @ XGuitar.com

Offspring tabs

Forever And A Day guitar tab

Album: Ignition
Year: 1992
Track: 12
Title: Forever and a day

Intro X2
E-------------------10101010-------------13131313--------8888----------10101010----------------
B-------------------10101010-------------13131313--------8888----------10101010----------------
G----------------------------------------------------------------------------------------------
D------------7777---------------10101010-------------5555----------7777------------------------
A------------5555----------------8-8-8-8----------------3333----------5555---------------------
E----------------------------------------------------------------------------------------------


Verse X2
E----------------------------------------------------------------------------------------------
B----------------------------------------------------------------------------------------------
G----------------------------------------------------------------------------------------------
D--7---------10---------5---------7------------------------------------------------------------
A--5--X8---8---X8----3-X8----5--X8-------------------------------------------------------------
E----------------------------------------------------------------------------------------------

Then guitar 1 plays Intro (X2) over guitar 2 (plays Chorus X2)
(If you've got the answer...........................just keep it your own)

Chorus X2 (same as verse)
(screaming)

Verse X2
Chorus X2 

Chorus 2  X1
E---------------------------------------------------------------------------------
B---------------------------------------------------------------------------------
G---------------------------------------------------------------------------------
D--10101010-----5555------------------55555555------------------------------------
A---8-8-8-8--------3333--88888888--33333333-----88888888--------------------------
E------------------------------66666666---------------------66666666--------------

Solo over chorus X2  (I think Noodles does this one)
E------------------------------------------------------------------------------------------------------
B-----------10------------------------------------------------------10---------------------------------
G-10--10------10------10------------8---------------------10-------10-----------10---------------------
D----------------------13---------10------10---8-----10------------------13----------------------------
A------------------------------------------------------------------------------------------------------
E------------------------------------------------------------------------------------------------------

E----------------------------------------------------17--15------------------------------------------
B-------10----10-------10-----10----10-----------------15---18--15-----------------------------------
G--12-----12-------12------12----12------------------------------------------------------------------
D----------------------------------------------------------------------------------------------------
A----------------------------------------------------------------------------------------------------
E----------------------------------------------------------------------------------------------------

Verse X2
Chorus........................................................
  development and support by
dmitry ivanov