rock
 
|tablatures   |lyrics   |discussion forums   |more tabs @ XGuitar.com

Offspring tabs

Feelings guitar tab

Album: Americana

Year: 1998

Track: 6

Title: Feelings



- INTRO - | play 1x | * = play 8x with muting         

e|--------------|--*------------------------|-------------------------------------|

B|---*--*--*--*-|-3---*---------------------|-------------------------------------|

G|--5--5--5--7--|-x--7------------9-9-9-9-x-|-9-9-9-9-x-9-9-9-9-x-9-9-9-9-9-9-9-9-|

D|--7--6--5--4--|-3--5--7-7-7-7-x-9-9-9-9-x-|-9-9-9-9-x-9-9-9-9-x-9-9-9-9-9-9-9-9-|

A|--------------|-------7-7-7-7-x-7-7-7-7-x-|-7-7-7-7-x-7-7-7-7-x-7-7-7-7-7-7-7-7-|

E|--------------|-------5-5-5-5-x-----------|-------------------------------------|



- VERSE - | play 2x | * = play 8x with muting

e|--------------|---------------------------|

B|--------------|---------------------------|

G|--------------|--*--------------9-9-9-9-x-|

D|---*--*--*--*-|-0---*-7-7-7-7-x-9-9-9-9-x-|

A|--3--3--3--5--|-x--5--7-7-7-7-x-7-7-7-7-x-|

E|--5--4--3--2--|-1--3--5-5-5-5-x-----------|



- CHORUS - | play 1x, * = play 16x, # = play 8x     

e|----|----|-------|----|----|----|-------|-------|

B|----|-*--|-#--#--|----|----|-*--|-#--#--|-#--#--|

G|-*--|-5--|-7--9--|-*--|-*--|-5--|-7--4--|-1--2--|

D|-3--|-5--|-7--9--|-7--|-3--|-5--|-7--4--|-2--2--|

A|-3--|-3--|-5--7--|-7--|-3--|-3--|-5--2--|-2--2--|

E|-1--|----|-------|-5--|-1--|----|-------|-0--0--|



-> Play:  - VERSE (2x)



- CHORUS2 -  | play 1x, * = play 16x, # = play 8x             

e|----|----|-------|----|----|----|-------|---------------------------|

B|----|--*-|--#--#-|----|----|--*-|--#--#-|-9-9-9-9-x-10-10-10-10-x-9-|

G|--*-|-5--|-7--9--|--*-|--*-|-5--|-7--4--|-9-9-9-9-x-9--9--9--9--x-9-|

D|-3--|-5--|-7--9--|-7--|-3--|-5--|-7--4--|-9-9-9-9-x-9--9--9--9--x-9-|

A|-3--|-3--|-5--7--|-7--|-3--|-3--|-5--2--|-7-7-7-7-x-7--7--7--7--x-7-|

E|-1--|----|-------|-5--|-1--|----|-------|---------------------------|





Ok, here, Guitar 1 plays VERSE (2x) while Guitar 2 plays SOLO >



- SOLO - |   v = vibrato     b = bend        / or \ = slide

         |   * = play 8x     h = hammer on   p = pull-off    

e|------------------------------------------------8-------------------|                  

B|------------------8----------------------5-8/10---10----------15----|         

G|-9v9v9v9v9v9v9v9v---9------------5---5-7-------------9v9v9v9v-------|         

D|----------------------10-7---5-7---7--------------------------------| 

A|---------------------------7----------------------------------------|         

E|--------------------------------------------------------------------| 



e|------------*----*-17-15-----------------------20b(22)-20-15-17v*---|                  

B|-15b(17)-15b--15b--------17-----------------13----------------------|         

G|----------------------------17-14--14h17p14-14----------------------|         

D|--------------------------------------------------------------------|

A|--------------------------------------------------------------------|





e|-16v*-15v*-14v*--------------------------------------*--------------|                  

B|-------------------------10-10-10-10--13-13-13-13--17---------------|         

G|----------------9-9-9-9---------------------------------------------|         

D|--------------------------------------------------------------------|

A|--------------------------------------------------------------------|         

E|--------------------------------------------------------------------|



- CHORUS3 - | * = play 16x, # = play 8x, % = play 12x            

e|----|----|-------|----|----|----|-------|----|----|----|------------------|

B|----|-*--|-#--#--|----|----|-*--|-#--#--|----|----|-%--|------------------|

G|-*-=|-5--|-7--9--|-*--|-*--|-5--|-7--9--|-*--|-%--|-5--|-7-7-7-7--9-9-9-9-|

D|-3--|-5--|-7--9--|-7--|-3--|-5--|-7--9--|-7--|-3--|-5--|-7-7-7-7--9-9-9-9-|

A|-3--|-3--|-5--7--|-7--|-3--|-3--|-5--7--|-7--|-3--|-3--|-5-5-5-5--7-7-7-7-|

E|-1--|----|-------|-5--|-1--|----|-------|-5--|-1--|----|------------------|

Starts getting slower here___________/                    \__Palm-Muting____/





>> Guitar 1 lets A5 chord ring while guitar 2 plays OUTRO - 



- OUTRO - 1x      

e|------|-------15h----|------------------|

B|---15-|-15h17-----17-|-15----15---------|

G|------|--------------|----17----17--14\-|

D|-7----|--------------|------------------|

A|-7----|--------------|------------------|

E|-5----|--------------|------------------|

         \__Play 16x__/

  development and support by
dmitry ivanov