rock
 
|tablatures   |lyrics   |discussion forums   |more tabs @ XGuitar.com

Offspring tabs

Feelings bass tab

The Offspring
Feelings
Americana
Tabbed by MattW

# intro # !play all notes 4X!
G-----------------------|
D-----------------------|
A---0---7---7---7---7---|
E-----------------------|
:
# verse # X2 *=play 9X #=play 4X
G-----------------------------------|
D----------------------------#---#--|
A----*---*---*---*---*---*--0---7---|
E---5---4---3---2---1---3-----------|
:
# chorus # !play all notes 6X!
G----------------------------------------------------------------|
D----------------------------------------------------------------|
A---------3---3---5-------0-/12-----------3---3---5---2----------|
E-1---1---------------0-----------1---1-------------------0---0--|
:
Then play verseX2, chorus, verseX2 (during solo - second time last note 16X)
:
# chorus3 # !play all notes 6X! *=play 8X
G-----------------------------------------------------*-------------|
D--------------------------------------------*---*----7--75---------|
A--------3---3---5-----0-/12---------3---3---5----7---------75------|
E-1---1-------------0---------1---1----------------------------8753-|
>chorus3
G--------------------------------------------------------------------|
D----------------*-----*-----*-----*------------------------*--------|
A----*-----*----3-----3-----5-----7-----0---0000000000000/12-----0---|
E---1-----1----------------------------------------------------------|
:
  development and support by
dmitry ivanov