rock
 
|tablatures   |lyrics   |discussion forums   |more tabs @ XGuitar.com

Offspring tabs

Elders guitar tab

Album: The Offspring
Year: 1989
Track: 2
Title: Elders

# intro #   X 4                                                        
E-----------------------------------------------------|                
B-----------------------------------------------------|                
G--10--10-10-10-10-10-10-10-10-10-10---6---6--8---8---|                
D--10--10-10-10-10-10-10-10-10-10-10---6-6-6--8-8-8---|                
A---8---8--8--8--8--8--8--8--8--8--8---4-6-4--6-8-6---|                
E----------------------------------------4------6-----|                
       \________mute_______________/

# verse #   X 4
E-------------------------|
B-------------------------|
G--10---6---6--8---8------|
D--10---6-6-6--8-8-8------|
A---8---4-6-4--6-8-6------|
E---------4------6--------|

# chorus #    X 2
E---------------------------------------------------------------------|
B---------------------------------------------------------------------|
G---------------6--5--------------6--5--3--3-3-3-3--6--5--6---8---5---|
D---3--3-3-3-3--6--5--6--6-6-6-6--6--5--3--3-3-3-3--6--5--6---8---5---|
A---3--3-3-3-3--4--3--6--6-6-6-6--4--3--1--1-1-1-1--4--3--4---6---3---|
E---1--1-1-1-1--------4--4-4-4-4--------------------------------------|
       \mute_/           \mute_/           \mute_/

# intro2 #   X 2
E-------------------------------------------|                          
B-------------------------------------------|                          
G---3--3-3-3-3-3-3-3-3-3-3---6---6--8---8---|  -->    Play verse and chorus
D---3--3-3-3-3-3-3-3-3-3-3---6-6-6--8-8-8---|                          
A---1--1-1-1-1-1-1-1-1-1-1---4-6-4--6-8-6---|
E------------------------------4------6-----|
       \________mute_____/

# solo #    v = vibrato    b = bend
E-----------------15---------------------------------------------------->
B---13---------------14----14v--13------------17b-17b-17b-17b-17b-17b--->
G------13----13v--------15---------13----13v---------------------------->
D---------15--------------------------15-------------------------------->
A----------------------------------------------------------------------->
E----------------------------------------------------------------------->

E---15-13-------13----15-13-------13------------------------------------|
B---------14-14----14-------14-14----14--13---17b-17b-17b-17b-17b-17b---|
G-----------------------------------------------------------------------|
D-----------------------------------------------------------------------|
A-----------------------------------------------------------------------|
E-----------------------------------------------------------------------|

# bridge #
E-----------------------------------|
B-----------------------------------|
G-------------------6-5-6---8--10---|
D---8-6-8---8-6-8---6-5-6---8--10---|
A---8-6-8---8-6-8---4-3-4---6---8---|
E---6-4-6---6-4-6-------------------|
Play the chorus, intro X2 and verse.
  development and support by
dmitry ivanov