rock
 
|tablatures   |lyrics   |discussion forums   |more tabs @ XGuitar.com

Offspring tabs

Elders bass tab

The Offspring - Elders
:    Intro 4x
G:-----------------------------------|
D:-----------------------------------|
A:-8-8-8-8-8-8-8-8--4---4--6---6-----|
E:--------------------4------6-------|
:
:    Verse 4x
G:--------------------------------|
D:--------------------------------|
A:------------------4---4--6---6--|
E:-1-1-1-1-1-1-1-1----4------6----|
:
:    Chorus 2x
G:-----------------------------------------------------|
D:-----------------------------------------------------|
A:------------4-3-----------4-3--1-1-1-1-1-4-3-4-6-3---|
E:-1-1-1-1-1------4-4-4-4-4----------------------------|
:
:    Verse 6x
G:--------------------------------|
D:--------------------------------|
A:------------------4---4--6---6--|
E:-1-1-1-1-1-1-1-1----4------6----|
:
:    Chorus 2x
G:-----------------------------------------------------|
D:-----------------------------------------------------|
A:------------4-3-----------4-3--1-1-1-1-1-4-3-4-6-3---|
E:-1-1-1-1-1------4-4-4-4-4----------------------------|
:
:    Play this under the solo 4x
G:--------------------------------|
D:--------------------------------|
A:------------------4---4--6---6--|
E:-1-1-1-1-1-1-1-1----4------6----|
:
:    Then play this
G:-------------------------------------------------------|
D:-------------------------------------------------------|
A:----------------4-3-4---6-6-6-6-7-7-7-7----------------|
E:-6-4-6---6-4-6-----------------------------------------|
:
: Then chorus 2x
G:-----------------------------------------------------|
D:-----------------------------------------------------|
A:------------4-3-----------4-3--1-1-1-1-1-4-3-4-6-3---|
E:-1-1-1-1-1------4-4-4-4-4----------------------------|
:
:    Then this again 5x
G:--------------------------------|
D:--------------------------------|
A:------------------4---4--6---6--|
E:-1-1-1-1-1-1-1-1----4------6----|
:
:    And this once
G:----------------------------------------|
D:----------------------------------------|
A:------------------4---4--4---4--6-------|
E:-1-1-1-1-1-1-1-1----4------4------------|
  development and support by
dmitry ivanov