rock
 
|tablatures   |lyrics   |discussion forums   |more tabs @ XGuitar.com

Offspring tabs

Don't Pick It Up guitar tab

Album: Ixnay on the Hombre
Year: 1997
Track: 12
Title: Don't pick it up

# INTRO #
E---2--------------------------------------------------------->
B---2---------------------------2----------------------------->
G---3-------------3-------------3-------------3--------------->
D---4-------------4-------------4-------------4--------------->
A---4-4-4-4-4-4-4-4-4-4-4-4-4-4-4-4-4-4-4-4-4-4-4-4-4-4-4-4--->
E---2-2-2-2-2-2-2-2-2-2-2-2-2-2-2-2-2-2-2-2-2-2-2-2-2-2-2-2--->

E---------------------------------------------2-2-2-2-2-2-2-2---|
B-------------------------------2-------------2-2-2-2-2-2-2-2---|
G-----------------3-------------3-------------3-3-3-3-3-3-3-3---|
D---4-------------4-------------4-------------4-4-4-4-4-4-4-4---|
A---4-4-4-4-4-4-4-4-4-4-4-4-4-4-4-4-4-4-4-4-4-4-4-4-4-4-4-4-4---|
E---2-2-2-2-2-2-2-2-2-2-2-2-2-2-2-2-2-2-2-2-2-2-2-2-2-2-2-2-2---|

# INTRO2 #    (during second part of INTRO)
E-----------------------------------------------------------------------|
B-----------------------------------------------------------------------|
G-----------------------------------------------------------------------|
D-----------------------------------------------------------------------|
A------------------1-1-1-1-1-1-1--4-4-4-4-4-4-4--11-11-11-11-11-11-11---|
E---2-2-2-2-2-2-2-------------------------------------------------------|

# VERSE #   X8                         # riff over VERSE #   X2
E------------------------|             E-------------------------------|
B------------------------|             B-------------------------------|
G--11-11--9-9--4-4-4-4---|             G-------------------------------|
D--11-11--9-9--4-4-4-4---|             D---4-4-4-4--2-2-2-2--1-2-1-----|
A---9--9--7-7--2-2-2-2---|             A---------------------------4---|
E------------------------|             E-------------------------------|
  \___ska-chords______/

# CHORUS #
E----------------------------------------------------------------------------|
B----------------------------------------------------------------------------|
G------------4-4-4-4------------4-4-4-4------------4-4-4-4-----------4-4-4-4-|
D---4-4-2-2--4-4-4-4---4-4-2-2--4-4-4-4---4-4-2-2--4-4-4-4---4---2---4-4-4-4-|
A---4-4-2-2--2-2-2-2---4-4-2-2--2-2-2-2---4-4-2-2--2-2-2-2---4---2---2-2-2-2-|
E---2-2-0-0------------2-2-0-0------------2-2-0-0------------2---0-----------|
   \_____________________ska-chords________________________/

->Play VERSE X4, CHORUS, VERSE X4 or riff over VERSE X4, second part of INTRO
  or INTRO2, VERSE X4 and CHORUS. Huh!! There you have it!
  development and support by
dmitry ivanov