rock
 
|tablatures   |lyrics   |discussion forums   |more tabs @ XGuitar.com

Offspring tabs

Don't Pick It Up bass tab

Here's my attempt at Don't Pick It Up by Offspring...
Don't pick it up - Offspring from "Ixnay On The Hombre"
Done by Shaak
The new Offspring album is the best they've done so far. Lot more musical
flavor than Smash, I think. It's my 2nd tab and I think it pretty close as a main line, cause there's
some minor variations to it, but I didn't bother.

Verses
G-|---------------------------------------------------------------------------|
D-|-4-----2-2-4-2-----------------------The tail is varied a lot-------1-2-4--|
A-|-----4---------2---------1-(1)-2-(1)-and somewhere this comes in:-2--------|
E-|---------------------2-----------------------------------------------------|

    Chorus                   Chorus End
G-|-------------------------|-------------------------------------------------|
D-|----------------1-2-4----|-4--2--------------------------------------------|
A-|--------------2----------|-------2-2-2-------------------------------------|
E-|--2--2--0--0-------------|-------------------------------------------------|

    Break (Drums Only)                               well you get the idea....
G-|------------------------------------------------|--------------------------|
D-|-16\\4-with-lotsa-pickin'-4-----2-2-4-2----1-2-4-|-4444\\6666\\11-11-\\16-16---|
A-|-----------------------------4---------2--------|--------------------------|
E-|------------------------------------------------|--------------------------|

Just put 'em where they belong, and play along, to the song.
Mail any improvements to J.D.Terlingen@mail.uva.nl
  development and support by
dmitry ivanov