rock
 
|tablatures   |lyrics   |discussion forums   |more tabs @ XGuitar.com

Offspring tabs

Disclaimer guitar tab

Album: Ixnay on the Hombre
Year: 1997
Track: 1
Title: Disclaimer

# INTRO # ->Play 2X, first time without brackets and second time with.
E----------------------------------------------------|
B----------------------------------2-----2--2----(0)-|
G---------------------------2---2--------------2-----|
D-----------2---2-4-2-4-2-4-----------2--------------|
A-4-2-4-2-4------------------------------------------|
E----------------------------------------------------|

# VERSE #
E--------------------------------------------------------0-|
B-2-0-2-0-2----0-2-0-2-0-2----0-2-0-2-0-2----0-2-0-2-0-2---|
G-----------2--------------2--------------2----------------|
D----------------------------------------------------------|
A----------------------------------------------------------|
E----------------------------------------------------------|

->Play INTRO, VERSE, INTRO (only 1 time)

# OUTRO #
|-------------------Slow------------------|
|-------2---2-2-----Slow--------2---2-2---|
|---------------2---Slow----------------2-|
|-2-0-2---2---------Slow--2-0-2---2-------|
|-------------------Slow------------------|
|-------------------Slow------------------|
  development and support by
dmitry ivanov