rock
 
|tablatures   |lyrics   |discussion forums   |more tabs @ XGuitar.com

Offspring tabs

Dirty Magic guitar tab

Album: Ignition
Year: 1992
Track: 6
Title: Dirty Magic
 
Intro & verse  (guitar 1)
E|--------------------------------------------------------------------------|
B|--------------------------------------------------------------------------|
G|--------------------------------------------------------------------------|
D|--------------------------------------------------------------------------|
A|--------------7---------7---------10--------------9-----2---3-2---2---3-2-|
E|--0--3/5--5-5----5---5----5/8-8-8-----8--8\7--7-7---7-0---0-----0---0-----|

Guitar 2 (over verse) grad strum harder
E|-0-0-0-0-0-0-0-0-0-|-0-0-0-0---0-0-0-0-0-0-0-0-0-0-0-------------
B|-5-5-5-5-5-5-5-5-5-|-3-3-3-3/5-5-5-5-5-5-5-3-3-5-5-0-------------
G|-------------------|---------------------------------------------
D|-------------------|---------------------------------------------
A|-------------------|---------------------------------------------
E|-------------------|---------------------------------------------

first time only,fill 1 (guitar 2 over verse)fill 2 grad strum harder.
E|-0-0-0-0-0-0--0-0-0---------|   E|--0----0-0-0-0------------------|
B|-5-5-5-5-5-5--0-0-0---------|   B|--3/5--5-5-5-5------------------|
G|----------------------------|   G|--------------------------------|                               
D|----------------------------|   D|--------------------------------|
A|----------------------------|   A|--------------------------------|
E|----------------------------|   E|--------------------------------|
fill 3  fill 4
   grad strum 
   . harder .
E|-0-0-0-0-0-0-0-0-0----------   E|--0-0---0-0-0---0-0-------------
B|-5-5-5-5-5-5-5-5-5----------   B|--5-5\3-3-3-3/5-5-0-------------
G|----------------------------   G|--------------------------------                                
D|----------------------------   D|--------------------------------
A|----------------------------   A|--------------------------------
E|----------------------------   E|--------------------------------

Chorus
E|------------------------------------------------------------
B|------------------------------------------------------------
G|--7/9-----9----7/9-----9--------------7-7-7-7--------------- X 3
D|--7/9-----9----7/9-----9-----5-5-5-5--7-7-7-7---------------
A|--5/7-----7----5/7-----7-----5-5-5-5--5-5-5-5---------------
E|------0-0---0------0-0---0---3-3-3-3------------------------     
A               C            B     E
E|------------------------------------------------------------------
B|------------------------------------------------------------------
G|------------------------------------------------------------------
D|----7-7-7-7-7-7-7-7/10-10-10-10--9--9--2--------------------------
A|----7-7-7-7-7-7-7-7/10-10-10-10--9--9--2--------------------------
E|----5-5-5-5-5-5-5-5/8--8--8--8---7--7--0--------------------------
Interlude 
E|----------------------------------------------------------
B|--7-7-7-7/8-8-8-8-8-8-8-7-7-5-5-3-3-5/7-------------------
G|----------------------------------------------------------
D|----------------------------------------------------------
A|----------------------------------------------------------
E|----------------------------------------------------------
  development and support by
dmitry ivanov