rock
 
|tablatures   |lyrics   |discussion forums   |more tabs @ XGuitar.com

Offspring tabs

Denial Revisited guitar tab

Song: Denial, Revisited
Artist: The Offspring
Album: Conspiracy of One
As tabbed by Joe Muggah

Intro A (Guitar 1)
e----------------------------------------------------
B----------------------------------------------------
G-14-14-14-14/15\14--12-10---8-8-8-8/10-10-10--------
D--x--x--x--x--x--x---x--x---x-x-x-x--x--x--x-10-----
A-12-12-12-12/13\12--10--8---6-6-6-6/-8--8--8--x-----
E----------------------------------------------8-----

(continued)
e----------------------------------------------------
B----------------------------------------------------
G-14-14-14-14/15\14--12-10-8-10-10-------------------
D--x--x--x--x--x--x---x--x-x--x--x-------------------
A-12-12-12-12/13\12--10--8-6--8--8-------------------
E----------------------------------------------------

Intro B (Guitar 2)
e----------------------------------------------------
B----------------------------------------------------
G--8------8/10-10------------------------------------
D--8-(x8)-8/10-10-(x8)-------------------------------
A--6------6/-8--8------------------------------------
E----------------------------------------------------

Pre-Verse (Guitar 1)
e----------------------------------------------------
B-8/10-10-10-10---10-10-10---10--11-10-11h13---------
G-x--x--x--x--x----x-------------10-10-10-10---------
D-5/-7--7--7--7----7-------7-------------------------
A----------------------------------------------------
E----------------------------------------------------

Verse (Guitar 1)
e----------------------------------------------------
B-10------10---8h10-----10------10---8h10------------
G-----10------------10------10------------10---------
D----------------------------------------------------
A----------------------------------------------------
E----------------------------------------------------
("So here we go...")

(continued)
e----------------------------------------------------
B-8-8-8-8-------------10-10-10-10-10-10-10-----------
G-8-8-8-8-10-10-10-10-10-10-10-10-10-10-10-----------
D----------8--8--8--8--------------------------------
A----------------------------------------------------
E----------------------------------------------------

Chorus 1A (Guitar 2)
e------------------------------------------------------
B------------------------------------------------------
G-10-10-10-8-------------10-------8-------------10-----
D-10-10-10-8-(x8)-8-(x8)-10-(x16)-8-(x8)-8-(x8)-10-(x8)
A--8--8--8-6------8-------8-------6------8-------8-----
E-----------------6----------------------6-------------
("And if you go...")

Chorus 1B (Guitar 1)
e------------------------------------------------------
B-6/8-8-8--8-8--11-11-11--11-11--8/10-10-10--10-10-10--
G-5/8-8-8--8-8--10-10-10--10-10--8/10-10-10--10-10-10--
D--------------------------------|---played twice----|-
A------------------------------------------------------
E------------------------------------------------------

Chorus 2A (Guitar 2, continued off Chorus 1A)
e------------------------------------------------------
B------------------------------------------------------
G-8--------------------------8---10--------------------
D-8-(x8)--8-------6-6--8-8---8-8-10--------------------
A-6-------8-(x8)--6-6--8-8---6-8--8--------------------
E---------6-------4-4--6-6-----6-----------------------
("I know it'll be...")

Chorus 2B (Guitar 1, continued off Chorus 1B)
e------------------------------------------------------
B-6/8-8-8--8-8--11-11-11--11-11--4-4-4/6-6-6-6---------
G-5/8-8-8--8-8--10-10-10--10-10--3-3-3/5-5-5-5--8---10-
D-----------------------------------------------8-8-10-
A-------------------------------------------------8----
E------------------------------------------------------

Fill 1A (Guitar 1)   Fill 1B (Guitar 2, harmonics)
e------------------|-----------------------------------
B-(palm muted)-----|-----------------------------------
G------------------|-(10)-(10)--(10)-(10)--(10)--------
D-3--3--3--3--3----|-(10)-(10)--(10)-(10)--(10)--------
A-3--3--3--3--3----|--(8)--(8)---(8)--(8)---(8)--------
E-1--1--1--1--1----|-----------------------------------

Post-Chorus 1
e------------------------------------------------------
B------------------------------------------------------
G-10-10\8-8-------------10------8-------------10-------
D-10-10\8-8-(x8)-8-(x8)-10-(x8)-8-(x8)-8-(x8)-10-(x8)--
A--8--8\6-6------8-------8------6------8-------8-------
E----------------6---------------------6---------------
("And when we wrote...")

Post-Chorus 2 (continued from Post-Chorus 1)
e------------------------------------------------------
B------------------------------------------------------
G-8-----8----------------------------------------------
D-8-----8-8--------------------------------------------
A-6-----6-8--------------------------------------------
E---------6--------------------------------------------
("I'd wait here for you...")

Outro A (Guitar 1)
e-1--------1-------1-------1--------1-------1----------
B-1--------4-------1-------1--------4-------1----------
G-2-(x16)--3-(x8)--3-(x8)--2-(x16)--3-(x8)--3-(x8)-----
D-3--------1-------3-------3--------1-------3----------
A-3----------------1-------3----------------1----------
E-1------------------------1---------------------------
("How did you know?")

Outro B (Guitar 2)
e------------------------------------------------------
B-8/10--10-(x8)-10-11-10-11-11/13-11-10-------------4--
G-8/10----------------------------------12--------3----
D------------------------------------------10---1------
A------------------------------------------------------
E------------------------------------------------------

Intro A, B
Pre-Verse
Verse
Chorus 1A, 1B
Chorus 2A, 2B
Intro A, B
Verse
Chorus 1A, 1B
Chorus 2A, 2B
Intro A, B
Fill A, B
Post-Chorus 1
Post-Chorus 2
Outro A, B

I dedicate this tab to Charity, for all the good times
we had. It's a sad tune, but has a lot of meaning.
  development and support by
dmitry ivanov