rock
 
|tablatures   |lyrics   |discussion forums   |more tabs @ XGuitar.com

Offspring tabs

Denial Revisited bass tab

INTRO:
G:----------------------------------------------------------|
D:-----------------1-------------3-------------1---------3--|
A:---------------1------1------3------3------1------1-1-----|
E:--3/14----1--1----------3--3----------1--1----------------|

VERSE:
G:----------------------------------------------------------|
D:---------3-------------3----3-1----3---------------3------|
A:-------3------3------3---------------1----3------3--------|     x3
E:--3--3----------3--3------------------------3--3----------|

G:----------------------------------------------------------|
D:---------3-------------3----3-1----3----------------------|
A:-------3------3------3---------------1----3---------------|
E:--3--3----------3--3------------------------33333333------|

CHORUS:
G:--------------------------------------------------|
D:--11111113-----------------3-------------3----3---|
A:-----------11111113------3------3------3----------|     x2
E:--------------------3--3----------3--3------------|

G:--------------------------------------------------|
D:---------1-------------3-------------1---------3--|
A:-------1------1------3------3------1------1-1-----|
E:--1--1----------3--3----------1--1----------------|

VERSE:
G:----------------------------------------------------------|
D:---------3-------------3----3-1----3---------------3------|
A:-------3------3------3---------------1----3------3--------|
E:--3--3----------3--3------------------------3--3----------|

G:----------------------------------------------------------|
D:---------3-------------3----3-1----3----------------------|
A:-------3------3------3---------------1----3---------------|
E:--3--3----------3--3------------------------33333333------|

CHORUS:
G:--------------------------------------------------|
D:--11111113-----------------3-------------3----3---|
A:-----------11111113------3------3------3----------|     x2
E:--------------------3--3----------3--3------------|

G:--------------------------------------------------|
D:--11111113-------------------1---3----------------|
A:-----------11111113-----4444---1------------------|
E:--------------------4444--------------------------|

GUITAR SOLO:
G:--------------------------------------------------|
D:---------1-------------3-------------1---------3--|
A:-------1------1------3------3------1------1-1-----|     x2
E:--1--1----------3--3----------1--1----------------|

BRIDGE:
G:------------------------------------------------------------------|
D:-3-3-3-3-3-3-3-3-3-3-3-3-3-3-3-3-3-3-3-3-3-3-3-3-3-3-3-3-3-3-3-3--|
A:------------------------------------------------------------------|
E:------------------------------------------------------------------|

ENDING:
G:------------------------------------------------------------------|
D:-1-1-1-1-1-1-1-1-----------------3-3-3-3-3-3-3-3-3-3-3-3-3-3-3-3--|
A:-----------------1-1-1-1-1-1-1-1----------------------------------|     x5
E:------------------------------------------------------------------|

G:------------------------------------|
D:-1-1-1-1-1-1-1-1-----------------3--|
A:-----------------1-1-1-1-1-1-1-1----|
E:------------------------------------|
  development and support by
dmitry ivanov