rock
 
|tablatures   |lyrics   |discussion forums   |more tabs @ XGuitar.com

Offspring tabs

Demons guitar tab

Album: The Offspring
Year: 1989
Track: 5
Title: Demons

Do some scrap off!
# intro #
E-------------------------------------------------------------------------|
B-------------------------------------------------------------------------|

G---4--7---4--4-4-4-4-4-4--10-10-9-9-9-9--7--7-7-7-7-7-7--10-10-9-9-9-7---|
D---4--7---4--4-4-4-4-4-4---8--8-9-9-9-9--7--7-7-7-7-7-7--10-10-9-9-9-7---|
A---2--5---2--2-2-2-2-2-2---8--8-7-7-7-7--5--5-5-5-5-5-5---8--8-7-7-7-5---|
E-------------------------------------------------------------------------|
              \___mute__/                    \__mute___/
# intro2 #   X 2     * = played many times
E-----------------------------------------|
B----*------------------*-----------------|
G---4--10-10-9-9-9-9---7--10-10-9-9-9-7---|
D---4---8--8-9-9-9-9---7--10-10-9-9-9-7---|
A---2---8--8-7-7-7-7---5---8--8-7-7-7-5---|
E-----------------------------------------|
                                                            brackets only X 3
# solo #    X 2                                     # verse #   X 4
E---2--2-2-2-2-2-2--5-5-6-6-6-6--0-0-0-0--3---|     E------------------|
B---0--0-0-0-0-0-0--0-0-0-0-0-0--0-0-0-0--0---|     B-----*--*--*------|
G---------------------------------------------|     G----2--5-(4---*---|
D---------------------------------------------|     D----2--5-(4--4)---|
A---------------------------------------------|     A----0--3-(2--4)---|
E---------------------------------------------|     E-------------2)---|

Play intro2, solo, verse, intro2 and solo again.

# bridge #  X 2                                   # coda #
E--------------|                                  E----------------|
B--------------|                                  B----------------|
G---4----------|    Play solo and after that:     G---5-5-5-5--8---|
D---4---2--5---|                                  D---5-5-5-5--8---|
A---2---2--5---|                                  A---3-3-3-3--6---|
E-------0--3---|                                  E----------------|

# bridge2 #   X = mute chord on the left
E---------------------------------------------------->
B---------------------------------------------------->
G---4--X--4-4-4---7--X--7-7-7--10--9---5--X--5-5-5--->
D---4--X--4-4-4---7--X--7-7-7--10--9---5--X--5-5-5--->
A---2--X--2-2-2---5--X--5-5-5---8--7---3--X--3-3-3--->
E---------------------------------------------------->

E-----------------------------------------------------|
B-----------------------------------------------------|
G---4--X--4-4-4---7--X--7-7-7----5---5-5----7---7-7---|
D---4--X--4-4-4---7--X--7-7-7--3---3------5---5-------|
A---2--X--2-2-2---5--X--5-5-5-------------------------|
E-----------------------------------------------------|

# bridge3 #
E------------------------------------------------------------------|
B----*---*---*---*----*---*--------------------------------*---*---|
G---4---7---9---5----4---7---9-9--5-5-5-5--9-9--5-5-5-5--10--12----|
D---4---7---9---5----4---7---9-9--5-5-5-5--9-9--5-5-5-5--10--12----|
A---2---5---7---3----2---5---7-7--3-3-3-3--7-7--3-3-3-3---8--10----|
E------------------------------------------------------------------|

Play solo and intro2 again and let the nice end ring long and properly!
  development and support by
dmitry ivanov