rock
 
|tablatures   |lyrics   |discussion forums   |more tabs @ XGuitar.com

Offspring tabs

Demons bass tab

# intro # X6
G-----------------------------------------------------------|
D-----------------3-3-3-2-2-2-2-0-0-0-0-0-0-0-3-3-3-2-2-----|
A---2-2-2-2-2-2-2---------------------------------------3---|
E-----------------------------------------------------------|
:
# solo-back # !play all notes 6X!
G---------------------------------------------------------------|
D-------------------2-------0-----------------------------------|
A---2-------2-----------------------2-------2-------------------|
E---------------------------------------------------0-------3---|
:
# verse # X2  *=play 4X   |end second time!
G-------------------------|-----|
D----*---*---*-------*---*------|
A---0---3---2----*--0---3---2---|
E---------------2---------------|
:
Then play introX2, solo-back, verseX2, introX2 and solo-back again.
:
# bridge # X2                               # coda #
G-------------------|    Play solo-back     G---------------------|
D-------------------|    and after that:    D---------------------|
A---2---------------|                       A---3-3-3-3-5-5-5-5---|
E-----------0---3---|                       E---------------------|
:
# bridge2 #   *=play 4X
G-|-----------------------|------*---*-----------*---------------------------|
D-|-------0-0---2---------|--*--0---2----*---*--0---2--*--2--*--3---3---5---5|
A-|-2-2-----------1-----3-|-2-----------3---2---------1-----1-----33------55-|
E-|---------2X--------1---|--------------------------------------------------|
:
Then play solo-back and introX3.5 (end with D).
  development and support by
dmitry ivanov