rock
 
|tablatures   |lyrics   |discussion forums   |more tabs @ XGuitar.com

Offspring tabs

Dammit I Changed Again bass tab

Offspring
Dammit, I Changed Again

bridge/verse/intro
|------------------------------------------------|
|------------------------------------------------|
|------------4-4-4-4-4-4-------------6-6-6-6-6-6-|
|1-1-1-1-1-1-------------4-4-4-4-4-4-------------|the other parts are octamavized
other part
|----------------|
|----------------|
|-8---4--------6-|
|---------4------|

chours
|------------------------------------------------------|
|------------------------------------------------------|
|-8-8-8-8-8-8--4-4-4-4-4-4---------------6-6-6-6-6-6-6-|
|---------------------------4-4-4-4-4-4----------------|
hey this is the same chour riff on all i want but 1 fret down:{
also the same riff on have you ever but 1 fret up:}
wow thats easy
check out those songs to
  development and support by
dmitry ivanov