rock
 
|tablatures   |lyrics   |discussion forums   |more tabs @ XGuitar.com

Offspring tabs

Da Hui guitar tab

BAND: The Offspring
SONG: Da Hui
ALBUM: Splinter
YEAR: 2003
TABED BY: offspringfreak4000

KEYS: / = Slide Up, \\ = Slide Down, P.M. = Palm Mute, * = Let Ring

BASS INTRO:

G-------------------------------G
D-------------------------------D
A----------------7-7-7-7--------A
E--4-4-4-2-4-4-4---------7-9-7--E

1. PART OF VERSE:

e----------------------------------e
B----------------------------------B
G----------------9-9-9-9-----------G
D--6-6-6-4-6-6-6-9-9-9-9-9/-11\\-9--D
A--6-6-6-4-6-6-6-7-7-7-7-9/-11\\-9--A
E--4-4-4-2-4-4-4---------7/-9-\\-7--E

2. PART OF VERSE:

e-------------------e
B-------------------B
G-------------------G
D--6-6-6-4-6-6-6-4--D
A--6-6-6-4-6-6-6-4--A
E--4-4-4-2-4-4-4-2--E

1. PART OF CHORUS/BRIDGE:

e-----------------------------------e
B-----------------------------------B
G--9-9-9-9--------------------------G
D--9-9-9-9-4-4-4-4-6-6-6-6-6-6-6-6--D
A--7-7-7-7-4-4-4-4-6-6-6-6-6-6-6-6--A
E----------2-2-2-2-4-4-4-4-4-4-4-4--E

2. PART OF CHORUS/BRIDGE:

e---------------------e
B---------------------B
G--9-9-9-9------------G
D--9-9-9-9-4-4-4-4-6--D
A--7-7-7-7-4-4-4-4-6--A
E----------2-2-2-2-4--E

SOLO:

e----------------4----------------e
B--4---5-2-5-4-----2-5-4---5-2-5--B
G---------------------------------G
D---------------------------------D
A---------------------------------A
E---------------------------------E

RIFF 1:

e-------------------------------e
B-------------------------------B
G-------------------------------G
D-------------------------------D
A---------3--3-4-6-4-3----------A
E--4--4-5--------------5-4-4-4--E

3. PART OF CHORUS/BRIDGE:

e-------------------------------------e
B-------------------------------------B
G--9-9-9-9----------------------------G
D--9-9-9-9-4-4-4-4-6---6---6---6---6--D
A--7-7-7-7-4-4-4-4-6---6---6---6---6--A
E----------2-2-2-2-4---4---4---4---4--E

END:

e---------------------------------------------------------------------------e
B---------------------------------------------------------------------------B
G----------------------------------------9-9-9-9----------------------------G
D--6-6--6-6-6--6-6--6--6---6-6-6-4-6-6-6-9-9-9-9-9/-11\\-9-6-6-6-6-6-4-7--6--D
A--6-6--6-6-6--6-6--6--6---6-6-6-4-6-6-6-7-7-7-7-9/-11\\-9-6-6-6-6-6-4-7--6--A
E--4-4--4-4-4--4-4--4--4---4-4-4-2-4-4-4---------7/--9\\-7-4-4-4-4-4-2-5--4--E
                                                          P.M._P.M.


 _ _ _ _ _ _ _ _ _ _ _ _ _ _ _ _ _ _ _ _ _ _ _ _ _ _ _ _ _ _ _ _ _ _ _ _ _ _ _ _ _ _
|                                                                                   |

ORDER:

BASS INTRO X 2
1. PART OF VERSE X 3
2. PART OF VERSE X 1
1. PART OF VERSE X 3
2. PART OF VERSE X 1
1. PART OF CHORUS/BRIDGE X 3
2. PART OF CHORUS/BRIDGE X 1
1. PART OF VERSE X 3
2. PART OF VERSE X 1
1. PART OF CHORUS/BRIDGE X 3
2. PART OF CHORUS/BRIDGE X 1
GUITAR 1 PLAYS SOLO X 1 WHILE GUITAR 2 PLAY VERSE X 3
RIFF 1 X 1
1. PART OF CHORUS/BRIDGE X 3
3. PART OF CHORUS/BRIDGE X 1
END X 1

|_ _ _ _ _ _ _ _ _ _ _ _ _ _ _ _ _ _ _ _ _ _ _ _ _ _ _ _ _ _ _ _ _ _ _ _ _ _ _ _ _ _|
  development and support by
dmitry ivanov