rock
 
|tablatures   |lyrics   |discussion forums   |more tabs @ XGuitar.com

Offspring tabs

Da Hui bass tab

Artist: The Offspring
Song: Da Hui
Album: Splinter
Bassist: Grek K.
Tuning: Standard
Tabber: Spidey255

Intro/Chorus                          4th time
G|-------------------------------|---------------|
D|-------------------------------|---------------|
A|-----------------7-7-7---------|---------------|
E|-4-4-4-2-4-4-4-2-------7-7-9-7-|-444-2-444-2-4-|

Verse (Out on the park...)
G|----------------------|
D|----------------------|
A|-77-7-----------------|
E|------22-2-44-2-444-2-|

-chorus during solo

End Of Bridge
G|-----------------|
D|-----------------|
A|-----------------|
E|-2-4-2-4-2-4-4-4-|

Very Ending
G|-------------|
D|-------------|
A|-------------|
E|-44444-2-5-4-|
  development and support by
dmitry ivanov