rock
 
|tablatures   |lyrics   |discussion forums   |more tabs @ XGuitar.com

Offspring tabs

Crossroads guitar tab

Album: The Offspring
Year: 1989
Track: 4
Title: Crossroads

Intro:  (Do 4x) Play with
|-------1-1-1-------------------1-1-1-------------|
|-3-3-3-------1-----------3-3-3-------1-----3-3-3-|
|---------------3-3-2-2-2---------------3-3-------|
|-------------------------------------------------|
|-------------------------------------------------|
|-------------------------------------------------|

RIFF 1:Bass riff 1A, 1B  
Mute the string in between with your index finger to play them. 
|-------------------------------------------------------|
|-------------------------------------------------------|
|-7-7-7-9-9-9-10-10-10-10-10-10-9-9-9-9-9-9-6-6-6-6-6-6-|
|-------------------------------------------------------|
|-5-5-5-7-7-7--8--8--8--8--8--8-7-7-7-7-7-7-4-4-4-4-4-4-|
|-------------------------------------------------------|

Play Bass riff 1a, then guitar 1b, then bass 1a, then guitar 1b, 
then verse.Verse: play 2x.You can either play the full 3-note power 
chord or just the lower two notes - I can't tell exactly what Noodles is playing.
|-------------------------------------------------------|
|-------------------------------------------------------|
|-7-10-9-8-7-10-9-7-5---------2-2-2-3-------------------|
|-7-10-9-8-7-10-9-7-5---------2-2-2-3-------------5-5-7-|
|-5--8-7-6-5--8-7-5-3-3-3-3-3-0-0-0-1-1-1-1-1-1-1-5-5-7-|
|-------------------------------------------------3-3-5-|         

Chorus: play x4)
|---------|
|---------|
|-10----7-|
|-10-10-7-|
|--8-10-5-|
|-----8---|
Solo:  (Play verse progression twice underneath)
|-----------------------------------------|
|-10-10-10-10---10-10-10b11r10-8----------|
|--------------------------------10p8-----|
|-------------------------------------9p8-|
|-----------------------------------------|
|-----------------------------------------|
|---------------------------------------------13p12-13p12-13p12-13p12-|
|---------------------11p10-11p10-11p10-11p10-------------------------|
|-10p8-10p8-10p8-10p8-------------------------------------------------|
|---------------------------------------------------------------------|
|---------------------------------------------------------------------|
|---------------------------------------------------------------------|

Play the chorus, then go to Bridge 1:Bridge 1:The bridge is mostly 
the verse chords, except they all have different endings.It's a real pain.

Riff A
|-------------------------------------------------------------------------|
|-------------------------------------------------------------------------|
|-9-10-9-7---10-9-7-5-5-5-------7-|-9-10-9-7---10-9-7-10---------------7--|
|-9-10-9-7---10-9-7-5-5-5---7-7-7-|-9-10-9-7----------10-pause-10-pause-7-|
|-7--8-7-5----8-7-5-3-3-3---7-7-5-|-7--8-7-5-----------8-------10-------5-|
|---------------------------5-5---|-----------------------------8---------|

Riff B
|----------------------------------------------|
|----------------------------------------------|
|-7-7-7-------------------------10-9---5-5-5-7-|  
Play this section x2
|-7-7-7-continue, till-10-10-10-10-9---5-5-5-7-|
|-5-5-5----------------10-10-10--8-7---3-3-3-5-|
|-----------------------8--8--8----------------|
Now play that whole section x2 again with other lyrics.Then go to 
final part of bridge.
|---------------------------------------------------------------------|
|---------------------------------------------------------------------|
|-5-------------3-----------5----------------------3------------------|
|-5-------------3-----------5----------------------3------------------|
|-3-------------1-----------3----------------------1------------------|
|---------------------------------------------------------------------|

Play riff 1, followed by the verse and chorus, and voila, you're finished.
  development and support by
dmitry ivanov