rock
 
|tablatures   |lyrics   |discussion forums   |more tabs @ XGuitar.com

Offspring tabs

Cool To Hate guitar tab

Album: Ixnay on the Hombre
Year: 1997
Track: 5
Title: Cool to hate

# VERSE #   X4  (brackets only first time)
E----------------------------------------|
B----------------------------------------|
G--(10-10)---5-10-10-8-8---5-8-8-10-10---|
D--(10-10)---5-10-10-8-8---5-8-8-10-10---|
A--(-8--8)---3--8--8-6-6---3-6-6--8--8---|
E----------------------------------------|

# PRE-CHORUS #       *=play 8X             p-m=palm-muted
E--------------------------------------------------------------------------|
B--------------------------------------------------------------------------|
G--10---------8---------6---------8--------10---------8----------*---*-----|
D--10--8-10---8---6-8---6---6-8---8--8-10--10--8-10---8---6-8---8--10------|
A---8--8-10---6---6-8---4---6-8---6--8-10---8--8-10---6---6-8---8--10------|
E------6--8-------4-6-------4-6------6--8------6--8-------4-6---6---8------|
                                                                \p-m/

# CHORUS #       X2
E--------------------------------------------------------------------|
B--------------------------------------------------------------------|
G--10-10-------------8-8-------------6-6-------------8-8-------------|
D--10-10--6--6-6-6---8-8--8--8-8-8---6-6--6--6-6-6---8-8--8--8-8-8---|
A---8--8--6--6-6-6---6-6--8--8-8-8---4-4--6--6-6-6---6-6--8--8-8-8---|
E---------4--4-4-4--------6--6-6-6--------4--4-4-4--------6--6-6-6---|


# END-CHORUS #
E-------------------------------------------------------------------|
B-------------------------------------------------------------------|
G---6-6-------------8-8-------------6-6-------------8-8-------------|
D---6-6--6--6-6-6---8-8--8--8-8-8---6-6--6--6-6-6---8-8--8--8-8-8---|
A---4-4--6--6-6-6---6-6--8--8-8-8---4-4--6--6-6-6---6-6--8--8-8-8---|
E--------4--4-4-4--------6--6-6-6--------4--4-4-4--------6--6-6-6---|

->Play VERSE, PRE-CHORUS, CHORUS and END-CHORUS.

# bridge #   X3      m=mute                          # END-bridge # *=play 4X
E------------------------------------------------|   E-----------|
B------------------------------------------------|   B-----------|
G--10-10-10-10--10-10-10-10---8-8-8-8--8-8-8-8---|   G----*---*--|
D--10-10-10-10--10-10-10-10---8-8-8-8--8-8-8-8---|   D---8--10---|
A---8--8--8--8---8--8--8--8---6-6-6-6--6-6-6-6---|   A---8--10---|
E---------m--m---------m--m-------m-m------m-m---|   E---6---8---|
                                                         m   m

->Play CHORUS X4 (palm-muted) and END-CHORUS (palm-muted).

# bridge2 #
E-------------------------|
B-------------------------|
G--10---8-10---8---8-10---|
D--10---8-10---8---8-10---|
A---8---6--8---6---6--8---|
E-------------------------|

->Play PRE-CHORUS, CHORUS, END-CHORUS and chop it off with first VERSE chord.
  development and support by
dmitry ivanov