rock
 
|tablatures   |lyrics   |discussion forums   |more tabs @ XGuitar.com

Offspring tabs

Cool To Hate bass tab

Song:Cool To Hate
Band The offspring
Verse
G---------------------------------------
D-------------------------------------- Play that 4 times but on the 4th one let it ring
A-(8)(8)------8--66--------6--88--
E-----------8------------6-----------

* means play about 8
G--------------------------------------------------------
D-------------------------------------------------------
A--------6-------4-------6-------8------6------------
E-4\\6-------4\\6-----4\\6----4\\6------4\\6---4\\6--6*-8*

Chorus
G-----------------------------
D------------------------------
A----88-----------66--------- Part 1
E---------4444--------6666
Listen to the CD to get when
to play parts 1 and 2
G-----------------------------
D------------------------------
A--44----------66---------- Part 2
E-------4444------6666--

Verse
Chorus

Break

G-------------------------------
D--------------------------------
A-88-XX-88-XX-66-XX--66--
E----------------------------------

Play that a few times then

G------------------------------
D------------------------------
A-----------------------------
E-----6*--8*----------------

Then play the chorus just with a diff strum.
then play something like this
G-----------------------------------
D----------------------------------
A-----\\88--\\88--\\66--\\66-----
E----------------------------------

play part the verse
chorus
  development and support by
dmitry ivanov