rock
 
|tablatures   |lyrics   |discussion forums   |more tabs @ XGuitar.com

Offspring tabs

Conspiracy Of One guitar tab

Website: The Offspring.com (http://www.theoffspring.com)
Tabbed By: per (per@coolast.com)
Tabbed For: Guitar
Song Title: Conspiracy Of One
Album: Conspiracy Of One
Tab:
----------------------------------------------------------
Structure:
intro      1x
pre-chorus 1x
intro      1x
pre-chorus 1x
Bridge1    1x
chorus     1x
intro      1x
pre-chorus 1x
intro      1x
pre-chorus 1x
intro      1x
chorus     2x
bridge2    2x
bridge3    1x
chorus     2x
intro    0.5x


intro: 
e|------------------------------------------------------1x
B|-9-9--7-9-9--7-9-9--7-9-10--9-9--7-9-9--7-9-9--7-9----
G|-9-9--7-9-9--7-9-9--7-9-10--9-9--7-9-9--7-9-9--7-9-9--
D|-7-7--5-7-7--5-7-7--5-7--8--7-7--5-7-7--5-7-7--5-7-9--
A|---------------------------------------------------7--
E|------------------------------------------------------

pre-chorus
e|------------------------------------------------------1x
B|--------10-9----------------------7-7:--7-7-7/8-7/9---
G|9-8/9-8-10-9--9-9--7-7:--9-9-9-9--7-7:--7-7-7/8-7/9---
D|7-6/7-6--8-7--9-9--7-7:--9-9-9-9--5-5:--5-5-5/8-5/7---
A|--------------7-7--5-5:--7-7-7-7----------------------
E|------------------------------------------------------
pm              ...        .......


bridge1 (00:26)
e|------------------------------------------------------1x
B|-6/9/8:-----------------------------------------------
G|-6/9/8:-----------------------------------------------
D|------------------------------------------------------
A|------------------------------------------------------
E|------------------------------------------------------

chorus
e|------------------------------------------------------1x
B|-9-10-9--7-8-7--9-10-9--7-8-7--9--9------9------------
G|-9-10-9--7-8-7--9-10-9--7-8-7--9--9-9--9-9------------
D|-7--8-7--5-6-5--7--8-7--5-6-5--7--7-9--9-7------------
A|------------------------------------7--7--------------
E|------------------------------------------------------

Bridge2
e|------------------------------------------------------
B|-9-9-9-9-9-9-7-9:---------------7---------------------
G|-9-9-9-9-9-9-7-9:---9-9-9-9-9-9-7-7:------------------
D|-7-7-7-7-7-7-5-7:---9-9-9-9-9-9-5-7:------------------
A|--------------------7-7-7-7-7-7---5:------------------
E|------------------------------------------------------
pm .............      .............

Bridge3
e|------------------------------------------------------
B|-9-9-9-9-9-9-7-9-79:---------------7---7--------------
G|-9-9-9-9-9-9-7-9-79:---9-9-9-9-9-9-7-7-77:------------
D|-7-7-7-7-7-7-5-7-57:---9-9-9-9-9-9-5-7-57:------------
A|-----------------------7-7-7-7-7-7---5--5:------------
E|------------------------------------------------------
----------------------------------------------------------
  development and support by
dmitry ivanov