rock
 
|tablatures   |lyrics   |discussion forums   |more tabs @ XGuitar.com

Offspring tabs

Conspiracy Of One bass tab

Intro 2x
G----------------------------------------------------
D--0-0---0-0---0-0----------------------------------------
A------3-----3-----3-1-3-----------------------------------
E----------------------------------------------------



Verse-

G----------------------------------------------------
D--0----2-3-0----0-----------------------------------
A------------------3----3-3-3-3-3-1-1-1-1-1-3--------
E----------------------------------------------------

Chorus

G----------------------------------------------------
D--0-2-3------------0-2-3---------0-2-3--------------
A---------3-3-3---3------3-3-3--3------3--3-1-1-3----
E---------------3-------------3----------3-----------

Solo
G----------------------------------------------------
D--0-0-0-0-0-2-3--------------5-3--------------------
A---------------3-3-3-3------------------------------
E------------------------1-3-------------------------
  development and support by
dmitry ivanov